Nirvana

Polly Tab

Nirvana

Difficulty: BeginnerBeginner

by Falkenhain

tuner correct add songbook print version text version save to e-mail
chordsukulelecavacokeyboardtabbassdrumsharmonicsflute Guitar Pro
close

there isn't a video lesson for this song

request
chords

Polly

  		e  -------------------------------------------------------------------------------------------------------------------------------------------- 
B -------------------------------------------------------------------------------------------------------------------------------------------- 
G -------------------------------------------------------------------------------------------------------------------------------------------- 
D ---------------00------------------------------------------------------------------------------------------------------------------------- 
A ---------------------3-33----------------------------------------------------------------------------------------------------------------- 
E --0--03-3-------------------------------------------------------------------------------------------------------------------------------- 
 
e  -------------------------------------------------------------------------------------------------------------------------------------------- 
B -------------------------------------------------------------------------------------------------------------------------------------------- 
G -------------------------------------------------------------------------------------------------------------------------------------------- 
D --0------------------------------------------------------------------------------------------------------------------------------------------ 
A ------3----330------------1-1-0-------------------------------------------------------------------------------------------------------- 
E ----------------------33-------------------------------------------------------------------------------------------------------------------- 
 
--> Essas duas partes são o básico da música, já dá pra tocar com isso aí. Aconselho pra 
quem está começando a tocar, treinar no violão! É interessante!!!! Espero que ajude! Obrigado! 

	  

Search Paypal
auto scroll beats size up size down change color hide chords drawings
tab show chords e-chords YouTube Clip e-chords hide all tabs e-chords go to top tab

share with facebook