Nirvana

home > Nirvana

Solo de Baixo do Krist Bass Tab

Nirvana

Difficulty: BeginnerBeginner

by meta11eir0

tuner correct add songbook print version text version save to e-mail
chordsukulelecavacokeyboardtabbassdrumsharmonicsflute Guitar Pro
chords

Solo de Baixo do Krist

  		Solo de Baixo do Krist Novoselic 
Durante os shows que originaram o cd From The Muddy Banks... o Krist, baixista do nirvana, 
fez um solo de baixo, que esta aqui: 
 
Riff 1 
|------------|-------------------| 
|------------|-------------------| 
|------------|-------------------| 
|-0-0-3-3-5~-|-5-3-5-3-5-3-0-3-0-| 
 
|----------------|-----------------------------------| 
|-------5---5-7~-|-7-7-5---5-------------------------| 
|-7-5-7---7------|-------7---7-6-5-3-----------------| 
|----------------|-------------------5-0-0-0-0-0-0-0-| 
 
|---------------|-------------------| 
|-----------5-7-|-7p5---------------| 
|-----3/5-7-----|-----7-6-5-3-------| 
|-3/5-----------|-------------5-3-0-| 
 
O solo de baixo acaba aqui, quando entra o Kurt gritando... 
	  

Search Paypal
auto scroll beats size up size down change color hide chords drawings
tab show chords e-chords YouTube Clip e-chords hide all tabs e-chords go to top tab