Nirvana

home > Nirvana

Swap Meet Bass Tab

Nirvana

Difficulty: nolevelnolevel

by meta11eir0

tuner correct add songbook print version text version save to e-mail
chordsukulelecavacokeyboardtabbassdrummharmonicsflute Guitar Pro
chords

Swap Meet

Year: 1989 - Album: Bleach

  		Nirvana 
Swap Meet 
 
Simples. 
 
No verso toque esse riff: 
G------------------------------------| 
D------------------------------------| 
A----------0-1-2-3-4---1-0-----------|  
E----0-3-----------------------3-0---| 
 
No refrao toque esse: 
G-------------------------------------------------| 
D-------------------------------------------------| 
A----3-2-1--1-1-0-1-0--0-0--1-0-------------------| 
E------------------------------------4-3-2--2-2---| 
	  

Search Paypal
auto scroll beats size up size down change color hide chords drawings
tab show chords e-chords YouTube Clip e-chords hide all tabs e-chords go to top tab