Nirvana

Downer Bass Tab

Nirvana

Difficulty: nolevelnolevel

by meta11eir0

tuner correct add songbook print version text version save to e-mail
chordsukulelecavacokeyboardtabbassdrummharmonicsflute Guitar Pro
close

there isn't a video lesson for this song

request
chords

Downer

Year: 1989 - Album: Bleach

  		Nirvana 
Downer 
 
Parte 1 
G-----------------------| 
D-----------------------|                        
A-----------------------| 
E---0-0-0-8-8-8-8-8-8---| 
 
Parte 2 
G---------------|| 
D---------------|| 
A---1-2-3-2-1---||  
E---------------|| 
 
Parte 3 
G------------------------------------|| 
D------------------0-0-0-0-1-1-1-1---|| 
A---0-0-0-0-1-1-1-1------------------|| 
E------------------------------------|| 
 
Lembre-se que nessa musica as notas sao executadas rapidamente 
	  

Search Paypal
auto scroll beats size up size down change color hide chords drawings
tab show chords e-chords YouTube Clip e-chords hide all tabs e-chords go to top tab

share with facebook