Nirvana

home > Nirvana

Come as you are Bass Tab

Nirvana

Difficulty: BeginnerBeginner

by Pantufa

tuner correct add songbook print version text version save to e-mail
chordsukulelecavacokeyboardtabbassdrummharmonicsflute Guitar Pro
chords

Come as you are

Year: 1991 - Album: Nevermind

(Kurt Cobain / Chris Novoselic)

	  Como tocar: 
 
(Obs: Antes de começar, espere a guitarra fazer o solo 2 vezes, então, entre com a bateria!) 
Durante a música, faça o solo igual ao da guitarra: 
G|----------------------------------------------| 
D|----------------------------------------------| 
A|-------------0----0----------------2--------| 
E|--0-0-1-2----2----2--2--1--0-----0--0-| 
 
No refrão, faça assim: 
G|--------------------------------------| 
D|--------------------------------------| 
A|-----------------0--0--0--0--0----| 
E|--2--2--2--2-----------------------| 
 
Leandro Calil Duarte 

	  

there isn't a video lesson for this song

request
Search
auto scroll beats size up size down change color hide chords drawings
tab show chords e-chords YouTube Clip e-chords hide all tabs e-chords go to top tab