Nirvana

home > Nirvana

Even in his youth Bass Tab

Nirvana

Difficulty: nolevelnolevel

by meta11eir0

tuner correct add songbook print version text version save to e-mail
chordsukulelecavacokeyboardtabbassdrummharmonicsflute Guitar Pro
chords

Even in his youth

Year: 1992 - Album: Singles

  		Nirvana 
Even In His Youth 
  
Essa musica eu peguei de um amigo meu, o Ben. 
Ele fez essa versao mais simplificada 
 
Verso: 
G|--------------------------| 
D|--------------------------| 
A|-3------------3-----------| 
E|---3-4-4-4-3----3-4-4-4-3-| 
 
Refrao: 
G|-----------------------------------------| 
D|-----------------------------------------| 
A|---------3--3-3----------5-5-5-5--7--7-7-| 
E|-0--0-0----------3--3-3------------------| 
 
G|----------------------------| 
D|----------------------------| 
A|-3--3-3--10--10-10--5-5-5-5-| 
E|----------------------------| 
 
Final do Refrao 
G|------------------7--7----------| 
D|------------7-8-9---9--9-8-7----| 
A|------7-8-9-----------------9-8-| 
E|-7-10---------------------------| 
 
Toque tudo nessa ordem: 
Verso: x 10  
Refrao: x 2              
Final do Refrao: x 1      
Verso: x 8 
Refrao: x 2 
Final do Refrao: x 1 
Verso: x 8 
Refrao: x 2 
Final do Refrao: x 1 
Verso: x8 
 
 isso a!! 

	  

Search Paypal
auto scroll beats size up size down change color hide chords drawings
tab show chords e-chords YouTube Clip e-chords hide all tabs e-chords go to top tab