Nirvana

Black And White Blues Tab

Nirvana

Difficulty: ExpertExpert

by vandcatarino

tuner correct add songbook print version text version save to e-mail
chordsukulelecavacokeyboardtabbassdrumsharmonicsflute Guitar Pro
close

there isn't a video lesson for this song

request
chords

Black And White Blues

  		B7 G#7 

e-7---7---7---7-----------5----| 
B------------------------------| 
G---8---8---8---8------5----5--| 
D----7---7---7---7---4--4------| x2 
A------------------------------| 
E------------------4-----------| 

A#7 
e-------7---| 
B-----------| 
G----7---7--| 
D---6-6-----| x2 
A-----------| 
E-6---------| 

B7 

e-------7----| 
B------------| 
G----8----8--| 
D---7-7------| x2 
A------------| 
E-7----------| 

C7 

e-------8----| 
B------------| 
G----9----9--| 
D---8--8-----| x2 
A------------| 
E-8----------| 

C#7 C7 

e-9-9-9-9-9-9-8/0-| 
B-9-9-9-9-9-9-8/0-| 
G-1010101010109/1 
D-9-9-9-9-9-9-8/0 (Bring out the top end of the chord) 
A-11111111111110/2 
E-9-9-9-9-9-9-8/0 
	  

Full key step upFull key step up
Half key step upHalf key step up
Half key step downHalf key step down
Full key step downFull key step down
Search Paypal
auto scroll beats size up size down change color hide chords drawings
tab show chords e-chords YouTube Clip e-chords hide all tabs e-chords go to top tab

share with facebook