Nirvana

home > Nirvana

Scentless Apprentice Tab

Nirvana

Difficulty: ExpertExpert

tuner correct add songbook print version text version save to e-mail
chordsukulelecavacokeyboardtabbassdrummharmonicsflute Guitar Pro
chords

Scentless Apprentice

  		 
tuning: drop D {DADGBe} 
 
intro (this is also played before each verse and as the chorus, i believe) 
.."Go away! .. Get away! .." 
e 0-0-0-1-1-1-1-2-2-2-2-3/9-%------------------------------------------- 
B 0-0-0-0-0-0-0-0-0-0-0-0---%------------------------------------------- 
G 0-0-0-0-0-0-0-0-0-0-0-0---%------------------------------------------- 
D ---------------------------------------------------------------------- 
A ---------------------------------------------------------------------- 
D ---------------------------------------------------------------------- 
 
verse (this is played after the intro and after each line of the verse; 
it follows the drums) 
.."He was born a scentless apprentice.." 
e ---------------------------------------------------------------------- 
B ---------------------------------------------------------------------- 
G ---------------------------------------------------------------------- 
D ---------------------------------------------------------------------- 
A 4-4-0-4-0-4-4-4-4-0-4-0-%--------------------------------------------- 
D 4-4-0-4-0-4-4-4-4-0-4-0-%--------------------------------------------- 
 
verse (this is played during each line) 
.."Like most babies smell like butter.." 
e 0--------------------------------------------------------------------- 
B 0--------------------------------------------------------------------- 
G 0--------------------------------------------------------------------- 
D 8(grad. bend up, grad. bend down)------------------------------------- 
A ---------------------------------------------------------------------- 
D ---------------------------------------------------------------------- 
 
pre-chorus 
e ----------------------------------------------------------------------------- 
B ----------------------------------------------------------------------------- 
G ----------------------------------------------------------------------------- 
D ----------------------------------------------------------------------------- 
A 3-3-3-3-3-3/5-5-5-5-5/7-7-7-7-7/8-8-8-8-8/10-10-10-10-10/12-12-15-15-15-12~/~ 
D ----------------------------------------------------------------------------- 
 
or try 
 
Dropped D tuning 
 
  F#  D F#          D F#  
e-----------------------0-0-0-0-1-1-1-1-2-2-2-2-3-3 
B-----------------------0-0-0-0-0-0-0-0-0-0-0-0-0-0 
G-------------------------------------------------- 
D-4-4-0-4-4-4-4-4-4-0-4---------------------------- 
A-4-4-0-4-4-4-4-4-4-0-4---------------------------- 
D-4-4-0-4-4-4-4-4-4-0-4---------------------------- 
  (play the F#/D stuff along with drum beat) 
Verse: 
e------------------------------------------------------- 
B-0-0-0-0--/-/-/-/0-0-0-0--/-/-/-/---------------------- 
G-8-8-8-8-8-8-8-8-9-9-9-9-9-9-9-9----------------------- 
D----------------------------------4-4-0-4-4-4-4-4-4-0-4 
A----------------------------------4-4-0-4-4-4-4-4-4-0-4 
D----------------------------------4-4-0-4-4-4-4-4-4-0-4 
                                   (see above note) 
 Like most babies smell like butter 
 He had a smell like no other 
 He was born scentless and senseless 
 He was born a scentless apprentice 

	  

Full key step upFull key step up
Half key step upHalf key step up
Half key step downHalf key step down
Full key step downFull key step down
Search Paypal
auto scroll beats size up size down change color hide chords drawings
tab show chords e-chords YouTube Clip e-chords hide all tabs e-chords go to top tab