Nirvana

home > Nirvana

Milk It Tab

Nirvana

Difficulty: IntermediateIntermediate

by markin+grunge

tuner correct add songbook print version text version save to e-mail
chordsukulelecavacokeyboardtabbassdrummharmonicsflute Guitar Pro
chords

Milk It

  		MILK IT 
NIRVANA 
 
Guitarra 1 
e|12--------11---5-x-x-x-7----------------------- 
B|---11-12-10----5---------6-7/9-------8-6/7----- 
G|--------9---------------------6-8-5-4-----7/6 8 
D|-------------9--------------------------------- 
A|--------------0-------------------------------- 
E|----------------------------------------------- 
 
Guitarra 2 
e|-7--5-------------7-7-7-7/9-6--4-----------10-11-16dontpick- 
B|---6---7-6-5-4-3-----------8--5-5/0-rake--9----------------- 
G|--5---6---------4/----------------------------------/x------ 
D|-----7------------------------------------------8---/x------ 
A|-----------------------------0------------------------------ 
E|------------------------------------------------------------ 
 
Refrão: 
e|----------------------------------- 
B|-------9-9------------------------- 
G|-------9-9------------------------- 
D|-------9-9------------------------- 
A|-8-8-8-7-7-5-5---5-5-5-6-6-2-2-2--- 
E|-6-6-6-----3-3-0-3-3-3-4-4-0-0-0--- 
 
ponte: 
e|-----------------8----------------3- 
B|---5-5------------------------------ 
G|--------------8 8----------------2-- 
D|---------------7-------------------- 
A|-1----3 3--------------------------- 
E|--0---6--6-6-0----6-6-6-6-6-6-6-0--- 
 
e|----------------------3\- 
B|------------------------- 
G|---------------------2--- 
D|------------------------- 
A|------------------------- 
E|-6-6-6-6-6-6-6-0-0-0----- 
 
Verso: 
e|-6-6-6-6-6-6-6-6-0-0-0-0-0 
 
 

	  

Search Paypal
auto scroll beats size up size down change color hide chords drawings
tab show chords e-chords YouTube Clip e-chords hide all tabs e-chords go to top tab