Nirvana

home > Nirvana

You know you're right Bass Tab

Nirvana

Difficulty: BeginnerBeginner

by meta11eir0

tuner correct add songbook print version text version save to e-mail
chordsukulelecavacokeyboardtabbassdrummharmonicsflute Guitar Pro
chords

You know you're right

Year: 2002 - Album: Nirvana

  		Nirvana 
You Know You're Right 
 
Durante a intro e o verso toque isso: 
|-----------------------------------| 
|-----------------------------------| 
|-----------------------------------| 
|-0-2-2-2-0-0-0-0-------------------| 
 
No pre-refrao toque isso: 
|-----------------------------| 
|-----------------------------| 
|--5-5-5-0-5---7-7-7-0-7------| 
|-----------------------------| 
"never say a word again..." 
"Things have never been so well." 
 
E no refrao toque isso: 
|--------------------------------| 
|------------------------0-2-4---| 
|------------------0-2-4---------| 
|-0-2-2-2-0-2--0-2---------------| 
	  

Search Paypal
auto scroll beats size up size down change color hide chords drawings
tab show chords e-chords YouTube Clip e-chords hide all tabs e-chords go to top tab