Nirvana

home > Nirvana

Mrs. Butterworth Tab

Nirvana

Difficulty: nolevelnolevel

by weezer+pillows

tuner correct add songbook print version text version save to e-mail
chordsukulelecavacokeyboardtabbassdrumsharmonicsflute Guitar Pro
chords

Mrs. Butterworth

Year: 2004 - Album: Sliver: The Best Of The Box

  		Mrs. Butterworth 
by 
Nirvana 

STANDARD TUNING 

Intro / Verse 
|-------------------| 
|-------------------| 
|-------------------| repeat 
|----------------1--| 
|---5------------1--| 
|--0--6p5p0--0-0-1--| 
             ^ ^ 
palm mute these 2 notes 

Chorus 
|-----------------------------| 
|-----------------------------| 
|----------8-8----------------| 
|--3--3-3--8-8--8-8-8--9-9-9--| 
|--3--3-3--6-6--8-8-8--9-9-9--| 
|--1--1-1-------6-6-6--7-7-7--| 

	  

Search Paypal
auto scroll beats size up size down change color hide chords drawings
tab show chords e-chords YouTube Clip e-chords hide all tabs e-chords go to top tab