Pearl Jam

home > Pearl Jam

Even Flow Tab

Pearl Jam

Difficulty: ExpertExpert

by brad%5Fdelson

tuner correct add songbook print version text version save to e-mail
chordsukulelecavacokeyboardtabbassdrummharmonicsflute Guitar Pro
chords

Even Flow

  		Tom : D 
 
Riff Intro: 
E|-----|----------------|------------------| 
B|-----|----------5--7--|------------------| 
G|-----|----------5--7--|------------------| 
D|-----|--0-/5h7--------|--0---6-5?3p0-----|   3X 
A|-----|----------------|------------------| 
E|?15-|----------------|------------------| 
 
RIFF 2 				RIFF 3 
E|---------------------|     E|----------------| 
B|---------------------|     B|----------------| 
G|--7-5----------------|     G|--------5--7----| 
D|------6-5-3-0-3h5-0--|     D|--5--7--------0-| 2X 
A|---------------------|     A|----------------| 
E|?--------------------|     E|----------------| 
 
RIFF 1 
E|----------------| 
B|----------5--7--| 
G|----------5--7--| 
D|--0-/5h7-------0| 
A|----------------| 
E|----------------| 
 
Riff Intro 
Riff 2  
Riff 3 
 
Riff 1 
Freezin', rests his head on a pillow made of concrete, again 
Oh, Feelin' maybe he'll see a little better set a days, ooh yeah 
Oh, hand out, faces that he sees time again ain't that familiar, ooh yeah 
Oh, dark grin, he can't help, when he's happy looks insane, oh yeah 
 
Riff Intro + Riff 2 
 
D    Bb			    D    C 
Even flow, thoughts arrive like butterflies 
    D        Bb                      D     C 
Oh, he don't know, so he chases them away, yeah...ooh... 
     D       Bb                   D    C       D    C       D    C 
Oh, someday yet, he'll begin his life again...life again...life again... 
 
Riff 1 
Kneelin', looking through the paper though he doesn't know to read, ooh yeah 
Oh, prayin', now to something that has never showed him anything 
Oh, feelin', understands the weather of the winters on its way 
Oh, ceilings, few and far between all the legal halls of shame, yeah... 
 
 
D    Bb			    D    C 
Even flow, thoughts arrive like butterflies 
    D        Bb                      D     C 
Oh, he don't know, so he chases them away, yeah...ooh... 
     D       Bb                   D    C        
Oh, someday yet, he'll begin his life again 
     D          Bb				D     C     D    C    D   C 
Oh, whispering hands, gently lead, lead him away...him away, him away... 
 
Riff 4 
A|-3-3-3-4-4-4-5-5-5-5-5-5-5-5----| 
 
Yeah!  Woo...ah yeah...fuck it up... 
 
Solo  
 
Riff 5 ( Final do Solo Antes do Refrão )  
E|----------------|------------------| 
B|----------------|---------------5--| 
G|----------5--7--|----------5--7---7|    4x 
D|--0-/5h7-------0|--0-/5h7----------| 
A|----------------|------------------| 
E|----------------|------------------| 
 
D    Bb			    D    C 
Even flow, thoughts arrive like butterflies 
    D        Bb                      D     C 
Oh, he don't know, so he chases them away, yeah...ooh... 
     D       Bb                   D    C        
Oh, someday yet, he'll begin his life again 
     D          Bb				D     C     D    C    D   C 
Oh, whispering hands, gently lead, lead him away...him away, him away... 
 
Riff 4 
Yeah!  Woo...uh huh...yeah, yeah, mommy, mommy... 
 
Solo Final 
E|----------------------------------| 
B|----------------------------10----| 
G|--12-10----10---------------------|    3x 
D|--------12----12--10-10-12--------| 
A|----------------------------------| 
E|----------------------------------| 
 
E|----------------------------------| 
B|----------------------------10---| 
G|--12-10----10---------------10---|   
D|--------12----12--10-10-12?-10---| 
A|----------------------------------| 
E|----------------------------------| 

	  

Full key step upFull key step up
Half key step upHalf key step up
Half key step downHalf key step down
Full key step downFull key step down
Search Paypal
auto scroll beats size up size down change color hide chords drawings
tab show chords e-chords YouTube Clip e-chords hide all tabs e-chords go to top tab