Nirvana

home > Nirvana

Lake of Fire Tab

Nirvana

Difficulty: BeginnerBeginner

by meta11eir0

tuner correct add songbook print version text version save to e-mail
chordsukulelecavacokeyboardtabbassdrummharmonicsflute Guitar Pro
chords

Lake of Fire

Year: 1994 - Album: Unplugged In New York

(Curt Kirkwood)

  		Nirvana 
Lake of Fire 
 
Para tocar com o violao solo nessa musica, baixe a afinacao um tom e meio 
 
"legenda" 
\=slide (down) 
/=slide (up) 
^=bend 
~=deixar soar 
 
 Intro (Guitarra Acustica) 
|-------------------|-------3-----3--------------------| 
|-3--3--------------|---------x-x---5^-3---------------| 
|-3--3-----------3--|---------x-x---5^-3--0------------| 
|-5--5---5\3--3--3--|-5--5----x-x----------------------| 
|-5--5---5\3--3--1--|-5--5-----------------------------| 
|-3--3---3\1--1-----|-3--3-----------------------------| 
 
|-------------------|----------------------------------| 
|-------------------|----------------------------------| 
|-----------------3-|-5--5---x-------------------------| 
|5--5--x--5\3--3--3-|-5--5---x--3--3--5----------------| 
|5--5--x--5\3--3--1-|-3--3---x--3--3--5----------------| 
|3--3--x--3\1--1----|-----------1--1--3----------------| 
 
|-------------------|----------------------------------| 
|-------------------|------11----11----11----11-----11-| 
|-------------------|-3/10----10----10----10----10-----| 
|-5--5--------------|----------------------------------| 
|-5--5---5\3--3/5---|----------------------------------| 
|-3--3---3\1--1/3---|----------------------------------| 
 
|-------------------| 
|---6---6---6/8-----| 
|-5---5---5--/7-----| 
|-------------------| 
|-------------------| 
 
 
Refrao 
|-------------------|----------------------------------| 
|-------------------|---------------5^---3-------------| 
|-------------------|---------------5^---3-------------| 
|-----------------3-|------------------------5---------| 
|-5--5----5\3--3--1-|----5--5----5-----------5---------| 
|-3--3----3\1--1----|----3--3----3---------------------| 
 
|-------------------------------------------------------| 
|-------------------------------------------------------| 
|-------------------3/-5---5----5-----------------------| 
|-5--5-----5--------3/-5---5----5--3---3--5-------------| 
|-5--5-----5--3--3--1/-3---3----3--3---3--5-------------| 
|-3--3-----3--1--1-----------------1---1--3-------------| 
 
|-------------------------------------------------------| 
|---------------------------------11----11----11----11--| 
|----------------------------3/10----10----10-----------| 
|-------------------------------------------------------| 
|-5-5-5-5-5-5-5-5-3--8\5--------------------------------| 
|-3-3-3-3-3-3-3-3-1--6\3--------------------------------| 
PM......................................................| 
 
|------------------| 
|--6--6/8--8-------| 
|--5--5/7--7-------| 
|------------------| 
|------------------| 
 
 
Verso 
|-1--1---1--1--1--1---1----------|-1--1---1-------------| 
|-3--3---3--3--3--1---1-----0--x-|-3--3---3--2--2----2--| 
|-2--2---2--2--2--3---3---3-0----|-2--2---2--2--2----2--| 
|-0--0---0--0--0--3---3----------|-0--0---0--2--2----2--| 
|-----------------1---1----------|----------------------| 
|--------------------------------|----------------------| 
 -I knew a lady came from... 
 
 
|-1--1--------------------------------------5~~~--5~~~--| 
|-3--3----0--1--1----1/3---3---3---3--------6~~~--------| 
|-2--2----0--3--3----3/5---5---5---5--7--7--7~~~--------| 
|-0--0-------3--3----3/5---5---5---5--7--7--7~~~--------| 
|------------1--1----1/3---3---3---3--5--5--5~~~--------| 
|--------------------------3---3---3--------------------| 
 -Went to her grave just... 
 
Depois toque o refrao de novo, depois o verso. 
	  

Search Paypal
auto scroll beats size up size down change color hide chords drawings
tab show chords e-chords YouTube Clip e-chords hide all tabs e-chords go to top tab