Nirvana

home > Nirvana

Marijuana Tab

Nirvana

Difficulty: IntermediateIntermediate

by meta11eir0

tuner correct add songbook print version text version save to e-mail
chordsukulelecavacokeyboardtabbassdrumsharmonicsflute Guitar Pro
chords

Marijuana

(Kurt Donald Cobain)

  		Nirvana 
Marijuana 
 
{Baixe meio tom para tocar essa música 
 
Riff 1 
||-----2-----2- 
||-----2-----2- 
||------------- 
||------------- 
||-2-4---2-4--- 
||-0-2---2-4--- 
 
Riff 2 
||-0-0-0-0-0-0-0-0-0-0-0-0-0-0-0-0- 
||-2-2-2-2-2-2-2-2-1-1-1-1-1-1-1-1- 
||-2-2-2-2-2-2-2-2-0-0-0-0-0-0-0-0- 
||-2-2-2-2-2-2-2-2-2-2-2-2-2-2-2-2- 
||-0-0-0-0-0-0-0-0-3-3-3-3-3-3-3-3- 
||--------------------------------- 
 
Riff 3 
||------------- 
||------------- 
||-----3-----3- 
||-2-4---2-4--- 
||-2-4---2-4--- 
||-0-2---0-2--- 
 
É isso... 
 

	  

Search Paypal
auto scroll beats size up size down change color hide chords drawings
tab show chords e-chords YouTube Clip e-chords hide all tabs e-chords go to top tab