Nirvana

home > Nirvana

Big Chesse Bass Tab

Nirvana

Difficulty: BeginnerBeginner

by meta11eir0

tuner correct add songbook print version text version save to e-mail
chordsukulelecavacokeyboardtabbassdrumsharmonicsflute Guitar Pro
chords

Big Chesse

  		Nirvana 
Big Cheese 
 
Eu vo comecar a mandar tabs de baixo e batera do nirvana tambem!! 
 
G-------------------------------| 
D-------------------------------| 
A---4-4-4-4-3-3-3-3-------| 
E-------------------------------| 
Big cheese, make me... 
 
G--------------------------------------| 
D--------------------------------------| 
A---4-4-4-4-4-4-4-4-0-2-0-3-4(x8)--0---| 
E--------------------------------------| 
Black is black, starigth back... 
 
Durante o solo de guitarra: 
G--------------------------------------------| 
D---2-2-2--2-3-3-3--0--2-0-2-0-0-------------| 
A----------------------------------------2---| 
E--------------------------------------------| 

	  

Search Paypal
auto scroll beats size up size down change color hide chords drawings
tab show chords e-chords YouTube Clip e-chords hide all tabs e-chords go to top tab