The Beatles

home > The Beatles

Day Tripper (solo) Tab

The Beatles

Difficulty: BeginnerBeginner

by redsoxnation

tuner correct add songbook print version text version save to e-mail
chordsukulelecavacokeyboardtabbassdrumsharmonicsflute Guitar Pro
chords

Day Tripper (solo)

  		E|-----------5-------------------10-10-12-12-10------------------------| 
B|----3-3-5g7-7g5-3-3g12-12-12-12-12-----------12-12-12-12-12-12-12-12-| 
G|-4-4-4---------------------------------------------------------------| 
D|---------------------------------------------------------------------| 
A|---------------------------------------------------------------------| 
E|---------------------------------------------------------------------| 
 
then you return to the riff 
E|-----------------------------| 
B|-----------------------------| 
G|-----------------------------| 
D|-------2-0-4-0h2-------------| 
A|------2---2-2----------------| 
E|-0-3h4-----------------------| 

	  

Search Paypal
auto scroll beats size up size down change color hide chords drawings
tab show chords e-chords YouTube Clip e-chords hide all tabs e-chords go to top tab