The Beatles

home > The Beatles

The End Bass Tab

The Beatles

Difficulty: BeginnerBeginner

tuner correct add songbook print version text version save to e-mail
chordsukulelecavacokeyboardtabbassdrummharmonicsflute Guitar Pro
chords

The End

  		



This was created with TabIt for Windows version 1.59

G  :----------------|----------------|----------------|-----------------|
D  :----------------|----------------|----------------|-----------------|
A  :----5-----------|----7-----------|----4-5-6-7-8-9-|-----------------|
E  :5---------------|7---------------|5---------------|--------10-8-5---|
    
G  :xxxx--xxx--x--x-|xx----xx-xxxx--x|xx--x-----xxx---|----------------|
D  :x---x-x--x-x--x-|x-x--x-x--x---x-|--x-x----x---x--|----------------|
A  :x---x-xxx--x--x-|x--xx--x---xx-x-|--x-x----x---x--|0-----0---------|
E  :xxxx--x--x-xxxx-|x------x-xxxx--x|xx--xxxx--xxx---|----------------|
	Drum Solo					Love you,
G  :----------------|
D  :0-----0---------|
A  :----------------|
E  :----------------|
    Love you! Repeat the love you part like 16212354 times for guitar solo thne piano comes and song ends.

	  

Search Paypal
auto scroll beats size up size down change color hide chords drawings
tab show chords e-chords YouTube Clip e-chords hide all tabs e-chords go to top tab