The Beatles

home > The Beatles

Blackbird Tab

The Beatles

Difficulty: ExpertExpert

tuner correct add songbook print version text version save to e-mail
chordsukulelecavacokeyboardtabbassdrumsharmonicsflute Guitar Pro
chords

Blackbird

(Lennon / Mc Cartney)

  		 

Transcription Green Blood 
 
 
E||-----------------------------|------------------------------------| 
B||--0-----1----------12--12-12-|-------12--12-12-12-------12--0-----| 
G||-----0-----0-----------------|-----0------------------0--------0--| 
D||-----------------------------|------------------------------------| 
A||--------0-----2~---10--------|--10-------10--------10-------------| 
E||--3--------------------------|------------------------------3-----| 
 
 
                                                                    
--------------------------------|---------------------0-----3-----| 
--1----------12--12-12------12--|--12-12-12-------12--------------| 
-----0--------------------0-----|---------------0--------0-----0--| 
--------------------------------|---------------------------------| 
--0-----2/---10--------10-------|--10--------10-------3-----4-----| 
--------------------------------|---------------------------------| 
 
 
                                                           
--2-----5-------------------|----------------2-----3-----| 
--------------8--8-8-----8--|--8--8-8-----8--------------| 
-----0-----0-----------0----|-----------0-------0-----0--| 
--0-------------------------|----------------0-----------| 
--------6-----7------7------|--6------6------------4-----| 
----------------------------|----------------------------| 
 
 
                                                               
--0--0-0-----0----------------|------------------------------| 
----------------4--4-4-----4--|--3--3-3-----3--2--2-2------2-| 
-----------0-------------0----|-----------0--------------0---| 
------------------------------|------------------------------| 
--3------3------3------3------|--2------2------0------0------| 
------------------------------|------------------------------| 
 
 
                                                             
------------------------------|--0-------------------------| 
--1--1-1-----1--0--0-0-----0--|--------3-----2--2-2-----2--| 
-----------0-------------0----|-----0-----0-----------0----| 
--0------0--------------------|----------------------------| 
------------------------------|--3-----2-----0------0------| 
----------------3------3------|----------------------------| 
 
 
                                                              
------------------------------|-----------------------------| 
--1--1-1-----1--0----0-----0--|--0-----1----------12--12-12-| 
-----------0-------0-----0----|-----0-----0-----------------| 
--0------0--------------------|-----------------------------| 
------------------------------|--------0-----2/---10--------| 
----------------3------3------|--3--------------------------| 
 
 
                                                                  
------------------------------0-----|--3-----2-----5------------| 
-------12--12-12-12-------12--------|--------------------8--8-8-| 
-----0------------------0--------0--|-----0-----0-----0---------| 
------------------------------------|--------0------------------| 
--10-------10--------10-------3-----|--4-----------6-----7------| 
------------------------------------|---------------------------| 
 
 
                                                             
-----------------------2-----|--3-----0--0-0-----0---------| 
------8--8--8-8-----8--------|----------------------4--4-4-| 
----0-------------0-------0--|-----0-----------0-----------| 
-----------------------0-----|-----------------------------| 
--7------6------6------------|--4-----3------3------3------| 
-----------------------------|-----------------------------| 
 
 
                                                               
------------------------------|------------------------------| 
------4--3--3-3-----3--2--2-2-|-------2-1--1-1-----1--0--0-0-| 
----0-------------0-----------|-----0------------0-----------| 
------------------------------|---------0------0-------------| 
--3------2------2------0------|--0---------------------------| 
------------------------------|-----------------------3------| 
 
 
                                                           
---------5-----3-----1-----|--0-------------------0--0-0-| 
------0--------------------|--------3--3-3-----3---------| 
----0-------0-----0-----0--|-----0-----------0-----------| 
---------3-----2-----0-----|-----------------------------| 
---------------------------|--3-----1------1------3------| 
--3------------------------|-----------------------------| 
 
 
                                                           
------0--5-----3-----1-----|--0--------------------------| 
---------------------------|--------3--3-3-----3--2--2-2-| 
----0-------0-----0-----0--|-----0-----------0-----------| 
---------3-----2-----0-----|-----------------------------| 
--3------------------------|--3-----1------1------0------| 
---------------------------|-----------------------------| 
 
 
                                                                 
------------1-1-----1--------|---------------------------------| 
------2--1-------------0-----|--1-----3--3--12--12-12------12--| 
----0-------------0-------0--|-----0---------------------0-----| 
---------0------0------------|---------------------------------| 
--0--------------------------|--0-----2-----10--------10-------| 
-----------------------3-----|---------------------------------| 
 
 
                                                             
------------------0-----3-----|--2-----5-------------------| 
--12--12--12--12--------------|--------------8--8-8-----8--| 
---------------------0-----0--|-----0-----0-----------0----| 
------------------------------|--0-------------------------| 
--10------10------3-----4-----|--------6-----7------7------| 
------------------------------|----------------------------| 
 
 
                                                             
----------------2-----3-----|--0--0-0-----0----------------| 
--8--8-8-----8--------------|----------------4--4-4-----4--| 
-----------0-------0-----0--|-----------0-------------0----| 
----------------0-----------|------------------------------| 
--6------6------------4-----|--3------3------3------3------| 
----------------------------|------------------------------| 
 
 
                                                               
------------------------------|------------------------------| 
--3--3-3-----3--2--2-2-----2--|--1--1-1-----1--0--0-0-----0--| 
-----------0-------------0----|-----------0-------------0----| 
------------------------------|--0------0--------------------| 
--2------2------0------0------|------------------------------| 
------------------------------|----------------3------3------| 
 
 
                                                                     
--------------------------|----------------------------------------| 
--0---0--0-----1----------|--12--12-12------12--12-12-12-------12--| 
----0-------0-----0-------|---------------0------------------0-----| 
--------------------------|----------------------------------------| 
---------------0-----2----|--10--------10-------10--------10-------| 
--3------3----------------|----------------------------------------| 
 
 
                                                           
--0-----3-----2-----5-----|------------------------------| 
--------------------------|--8--8-8-----8--8--8-8-----8--| 
-----0-----0-----0-----0--|-----------0-------------0----| 
--------------0-----------|------------------------------| 
--3-----4-----------6-----|--7------7------6------6------| 
--------------------------|------------------------------| 
 
 
                                                             
--2-----3-----0--0-0-----0--|------------------------------| 
----------------------------|--4--4-4-----4--3--3-3-----3--| 
-----0-----0-----------0----|-----------0-------------0----| 
--0-------------------------|------------------------------| 
--------4-----3------3------|--3------3------2------2------| 
----------------------------|------------------------------| 
 
 
                                                             
------------------------------|----------------5-----3-----| 
--2--2-2------2-1--1-1-----1--|--0--0-0-----0--------------| 
------------0------------0----|-----------0-------0-----0--| 
----------------0------0------|----------------3-----2-----| 
--0------0--------------------|----------------------------| 
------------------------------|--3------3------------------| 
 
 
                                                           
--1-----0-------------------|--0--0-0-----0--5-----3-----| 
--------------3--3-3-----3--|----------------------------| 
-----0-----0-----------0----|-----------0-------0-----0--| 
--0-------------------------|----------------3-----2-----| 
--------3-----1------1------|--3------3------------------| 
----------------------------|----------------------------| 
 
 
                                                             
--1-----0-------------------|-------------------1-1-----1--| 
--------------3--3-3-----3--|--2--2-2-----2--1-------------| 
-----0-----0-----------0----|-----------0-------------0----| 
--0-------------------------|----------------0------0------| 
--------3-----1------1------|--0------0--------------------| 
----------------------------|------------------------------| 
 
 
                                                                      
------------------------------|-------------------------------------| 
--0-----1-----3--3--12--12-12-|-------12--12--12--12-12-12--12--12--| 
-----0-----0------------------|-----0-------------0-----------------| 
------------------------------|-------------------------------------| 
--------0-----2-----10--------|--10-------10----------------10------| 
--3---------------------------|-------------------------------------| 
 
 
                                                             
--------------------------------|--------------0-----------| 
--12--12--12--12--12---12-0-----|--1-----3-----------3-----| 
-----------------------0-----0--|-----0-----0-----0-----0--| 
--------------------------------|--------------------------| 
--10------10------10------------|--0-----2-----3-----2-----| 
-----------------------10/3-----|--------------------------| 
 
 
                                                               
----------------------------|--------------------------------| 
--2-----1----1-----1--0-----|--1----------12--12-12------12--| 
-----0-----0-----0-------0--|-----0--------------------0-----| 
--------0------0------------|--------------------------------| 
--0-------------------------|--0-----2----10--------10-------| 
----------------------3-----|--------------------------------| 
 
 
                                                                
---------------------0-----3-----|--2-----5-------------------| 
--12-12-12-------12--------------|--------------8--8-8-----8--| 
---------------0--------0-----0--|-----0-----0-----------0----| 
---------------------------------|--0-------------------------| 
--10--------10-------3-----4-----|--------6-----7------7------| 
---------------------------------|----------------------------| 
 
 
                                                             
----------------2-----3-----|--0--0-0-----0----------------| 
--8--8-8-----8--------------|----------------4--4-4-----4--| 
-----------0-------0-----0--|-----------0-------------0----| 
----------------0-----------|------------------------------| 
--6------6------------4-----|--3------3------3------3------| 
----------------------------|------------------------------| 
 
 
                                                               
------------------------------|------------------------------| 
--3--3-3-0---3--2--2-2-----2--|--3------3---1--0--0-0---0-0--| 
--4--------0----2------2-0----|--5--5-5---0----0------0------| 
------------------------------|------------------------------| 
------------------------------|------------------------------| 
------------------------------|------------------------------| 
 
 
                                                             
--0-------------------------|------------------------------| 
--1-----3-----2--2-2-----2--|--3------3---1--0----0-----0--| 
-----0--4--0--2------2-0----|--5--5-5---0----0--0---0-0----| 
----------------------------|------------------------------| 
----------------------------|------------------------------| 
----------------------------|------------------------------| 
 
 
                                                          
--0-------------------------|-------------------3------|| 
--1-----3-----2--2-2-----2--|--3------3---1--0---------|| 
-----0--4--0--2------2-0----|--5--5-5---0----0---------|| 
----------------------------|--------------------------|| 
----------------------------|--------------------------|| 
----------------------------|--------------------------|| 
	  

Search Paypal
auto scroll beats size up size down change color hide chords drawings
tab show chords e-chords YouTube Clip e-chords hide all tabs e-chords go to top tab