The Beatles

home > The Beatles

I'm Looking Through You Bass Tab

The Beatles

Difficulty: BeginnerBeginner

by Adolfogomes

tuner correct add songbook print version text version save to e-mail
chordsukulelecavacokeyboardtabbassdrumsharmonicsflute Guitar Pro
chords

I'm Looking Through You

Year: 1965 - Album: Rubber Soul

  		I'm Looking Through You 
The Beatles 

Intro: 
G|------- ------- ------- -------|------- ------- ------- -------| 
D|-------------------------------|-------------------------------| 
A|-------------------------------|-------------------------------| 
E|-------------------------------|-------------------------------| 



G|------- ------- ------- -------|------- ------- ------- -------| 
D|-------------------------------|-------------------------------| 
A|-------------------------------|-------------------------------| 
E|-------------------------------|-------------------------------| 



G|------- ------- ------- -------| 
D|-------------------------------| 
A|-------------------------------| 
E|-------------------------------| 


Verse: 
G|------- ------- ------- -------|------- ------- ------- -------| 
D|-------------------------------|------------------------3------| 
A|----------------4-------3------|1-----------1---4--------------| 
E|-------------------------------|-------------------------------| 
          I'm     looking         through     you, 


G|------- ------- ------- -------|------- ------- ------- -------| 
D|------------------------3------|1-----------1---3-------1------| 
A|----------------3--------------|-------------------------------| 
E|1-----------1------------------|-------------------------------| 
          where   did     you go? 


G|------- ------- ------- -------|------- ------- ------- -------| 
D|-------------------------------|------------------------3------| 
A|----------------4-------3------|1-----------1---4--------------| 
E|4------------------------------|-------------------------------| 
          I       thought I       knew        you, 


G|------- ------- ------- -------|------- ------- ------- -------| 
D|------------------------3------|1-----------1---1-------1------| 
A|----------------3--------------|-------------------------------| 
E|1-----------1------------------|-------------------------------| 
          what    did I       know? 


G|------- ------- ------- -------|------- ------- ------- -------| 
D|-------------------------------|-------------------------------| 
A|-------------------------------|1-----------1---1-------1------| 
E|1-----------1---1-------1------|-------------------------------| 
          You don't       look    diffe  -    rent,       but 


G|1------ ----1-- ------- -------|------- ------- ------- -------| 
D|-------------------------------|-------------------------------| 
A|----------------4--------------|6-----------6---6-------6------| 
E|-------------------------------|-------------------------------| 
  you             have            changed 


G|------- ------- ------- -------|------- ------- ------- -------| 
D|6------------------------------|------------------------3------| 
A|----------------4-------3------|1-----------1---4--------------| 
E|-------------------------------|-------------------------------| 
          I'm     looking         through     you, 


G|------- ------- ------- -------|------- ------- ------- -------| 
D|-------------------------------|6-------6----------------------| 
A|4-----------4---4-------6------|----------------4-------4------| 
E|-------------------------------|-------------------------------| 
          you're not          the same! 


G|------- ------- ------- -------|------- ------- ------- -------| 
D|6-------6----------------------|6-------6----------------------| 
A|----------------4-------4---6--|----------------4-------4---6--| 
E|-------------------------------|-------------------------------| 


Verse: 
G|------- ------- ------- -------|------- ------- ------- -------| 
D|6-------6----------------------|------------------------3------| 
A|----------------4-------3------|1-----------1---4--------------| 
E|-------------------------------|-------------------------------| 
          Your    lips    are     mo    -     ving, 


G|------- ------- ------- -------|------- ------- ------- -------| 
D|3-----------3-----------3------|1-----------1---1-------1------| 
A|----------------3--------------|-------------------------------| 
E|-------------------------------|-------------------------------| 
          I       cannot      hear, 


G|1------ ------- ------- -------|------- ------- ------- -------| 
D|-------------------------------|------------------------3------| 
A|----------------4-------3------|1-----------1---4--------------| 
E|-------------------------------|-------------------------------| 
          Your    voice   is      soo    -    thing, 


G|------- ------- ------- -------|------- ------- ------- -------| 
D|3-----------3-----------3------|1-----------1---1-------1---1--| 
A|----------------3--------------|-------------------------------| 
E|-------------------------------|-------------------------------| 
          but the words   are     clear 


G|------- ------- ------- -------|------- ------- ------- -------| 
D|-------------------------------|-------------------------------| 
A|-------------------------------|1-----------1---1-------1------| 
E|1-----------1---1-------1------|-------------------------------| 
          You don't       sound   diffe  -    rent,       I've 


G|1------ ----1-- ------- -------|------- ------- ------- -------| 
D|-------------------------------|------------------------5------| 
A|----------------4-------4------|6-----------6---8--------------| 
E|-------------------------------|-------------------------------| 
  learnt          the             game, 


G|------- ------- ------- -------|------- ------- ------- -------| 
D|6------------------------------|------------------------3------| 
A|----------------4-------3------|1-----------1---4--------------| 
E|-------------------------------|-------------------------------| 
          I'm     looking         through     you, 


G|------- ------- ------- -------|------- ------- ------- -------| 
D|-------------------------------|6-------6----------------------| 
A|4-----------4---4-------4------|----------------4-------4---6--| 
E|-------------------------------|-------------------------------| 
          you're not          the same! 


G|------- ------- ------- -------|------- ------- ------- -------| 
D|6-------6----------------------|6-------6----------------------| 
A|----------------4-------4---6--|----------------4-------4---6--| 
E|-------------------------------|-------------------------------| 



G|------- ------- ------- -------| 
D|6-------6---------------6------| 
A|----------------6--------------| 
E|-------------------------------| 


Bridge: 
G|------- ------- ------- -------|------- ------- ------- -------| 
D|-------------------------------|-------------------------------| 
A|4-------4-------------------3--|4-------4---------------4------| 
E|----------------4-------4------|----------------4--------------| 
  Why,            tell    me, why         did you     not 


G|------- ------- ------- -------|------- ------- ------- -------| 
D|6-------6-------------------5--|6-------6----------------------| 
A|----------------6-------6------|----------------6-------6------| 
E|-------------------------------|-------------------------------| 
  treat   me  right? 


G|------- ------- ------- -------|------- ------- ------- -------| 
D|-------------------------------|-------------------------------| 
A|4-------4-------------------3--|4-------4---------------4------| 
E|----------------4-------4------|----------------4--------------| 
  Love            has     a   nas    -    ty  ha    -     bit of 


G|------- ------- ------- -------|------- ------- ------- -------| 
D|-------------------------------|-------------------------------| 
A|6-----------6---6--------------|6-----------6---6--------------| 
E|-------------------------------|-------------------------------| 
  disap   -   pea   -     ring    o - ver  -  night 

Verse: 
G|------- ------- ------- -------|------- ------- ------- -------| 
D|6-------6----------------------|------------------------3------| 
A|----------------4-------3------|1-----------1---4--------------| 
E|-------------------------------|-------------------------------| 
          You're  thin -  king    of          me 


G|------- ------- ------- -------|------- ------- ------- -------| 
D|3-----------3-----------3------|1-----------1---3---1----------| 
A|----------------3--------------|-------------------------------| 
E|-------------------------------|-------------------------------| 
          the same        old     way, 


G|1------ ------- ------- -------|------- ------- ------- -------| 
D|-------------------------------|------------------------3------| 
A|----------------4-------3------|1-----------1---4--------------| 
E|-------------------------------|-------------------------------| 
          You     were    a  -    bove        me, 


G|------- ------- ------- -------|------- ------- ------- -------| 
D|3-----------3-----------3------|1-----------1---1--------------| 
A|----------------3--------------|-------------------------------| 
E|-------------------------------|-------------------------------| 
          but     not     to- day 


G|------- ------- ------- -------|3------ ----3-- ------- 3------| 
D|3-----------3------------------|----------------3--------------| 
A|----------------3--------------|-------------------------------| 
E|-------------------------------|-------------------------------| 
          The on    -     ly      diffe  -    rence       is 


G|1------ ----1-- ------- -------|------- ------- ------- -------| 
D|-------------------------------|------------------------5------| 
A|----------------4-------4------|6-----------6---8--------------| 
E|-------------------------------|-------------------------------| 
  you're          down            there, 


G|------- ------- ------- -------|------- ------- ------- -------| 
D|6-----------6------------------|------------------------3------| 
A|----------------4-------3------|1-----------1---4--------------| 
E|-------------------------------|-------------------------------| 
          I'm     looking         through     you, 


G|------- ------- ------- -------|------- ------- ------- -------| 
D|------------------------6------|6-------6----------------------| 
A|4-----------4---6--------------|----------------4-------4---6--| 
E|-------------------------------|-------------------------------| 
          and you're      no  -   where! 


G|------- ------- ------- -------|------- ------- ------- -------| 
D|6-------6----------------------|6-------6----------------------| 
A|----------------4-------4---6--|----------------4-------4---6--| 
E|-------------------------------|-------------------------------| 



G|------- ------- ------- -------| 
D|6-------6---------------6------| 
A|----------------6--------------| 
E|-------------------------------| 


Bridge: 
G|------- ------- ------- -------|------- ------- ------- -------| 
D|-------------------------------|-------------------------------| 
A|4-----------4---------------3--|4-----------4-----------4------| 
E|----------------4-------4------|----------------4--------------| 
  Why,            tell    me, why         did you     not 


G|------- ------- ------- -------|------- ------- ------- -------| 
D|6-----------6-----------4------|6-----------6-----------6------| 
A|----------------6--------------|----------------6--------------| 
E|-------------------------------|-------------------------------| 
  treat   me  right? 


G|------- ------- ------- -------|------- ------- ------- -------| 
D|----------------6--------------|----------------6--------------| 
A|4-----------4-----------4------|4-------4---------------4------| 
E|-------------------------------|-------------------------------| 
  Love            has     a   nas    -    ty  ha    -     bit of 


G|------- ------- ------- -------|------- ------- ------- -------| 
D|-------------------------------|-------------------------------| 
A|6-------6-------6-------6------|6-------6-------6-------6------| 
E|-------------------------------|-------------------------------| 
  disap   -   pea   -     ring    o - ver  -  night 

Verse: 
G|------- ------- ------- -------|------- ------- ------- -------| 
D|6------------------------------|------------------------3------| 
A|----------------4-------3------|1-----------1---4--------------| 
E|-------------------------------|-------------------------------| 
          I'm     looking         through     you, 


G|------- ------- ------- -------|------- ------- ------- -------| 
D|3-----------3-----------3------|1-----------1---3-------1------| 
A|----------------3--------------|-------------------------------| 
E|-------------------------------|-------------------------------| 
          where   did     you go? 


G|1------ ------- ------- -------|------- ------- ------- -------| 
D|-------------------------------|------------------------3------| 
A|----------------4-------3------|1-----------1---4--------------| 
E|-------------------------------|-------------------------------| 
          I       thought I       knew        you, 


G|------- ------- ------- -------|------- ------- ------- -------| 
D|3-----------3-----------3------|1-----------1---1-------1------| 
A|----------------3--------------|-------------------------------| 
E|-------------------------------|-------------------------------| 
          what    did I       know? 


G|------- ------- ------- -------|3------ ----3-- ------- -------| 
D|3-----------3-----------3------|----------------3--------------| 
A|----------------3--------------|-------------------------------| 
E|-------------------------------|-------------------------------| 
          You don't       look    diffe  -    rent,       but 


G|1------ ----1-- ------- -------|------- ------- ------- -------| 
D|-------------------------------|------------------------5------| 
A|----------------4-------4------|6-----------6---8--------------| 
E|-------------------------------|-------------------------------| 
  you             have            changed 


G|------- ------- ------- -------|------- ------- ------- -------| 
D|6------------------------------|------------------------3------| 
A|----------------4-------3------|1-----------1---4--------------| 
E|-------------------------------|-------------------------------| 
          I'm     looking         through     you, 


G|------- ------- ------- -------|------- ------- ------- -------| 
D|-------------------------------|6-------6----------------------| 
A|4-----------4---4-------4------|----------------4-------4---6--| 
E|-------------------------------|-------------------------------| 
          you're not          the same! 

Outro: 
G|------- ------- ------- -------|------- ------- ------- -------| 
D|6-------6----------------------|6-------6----------------------| 
A|----------------4-------4---6--|----------------4-------4---6--| 
E|-------------------------------|-------------------------------| 
  Yeah,           baby, you've changed! 

Escrita por: John Lennon e Paul McCartney 
	  

Search Paypal
auto scroll beats size up size down change color hide chords drawings
tab show chords e-chords YouTube Clip e-chords hide all tabs e-chords go to top tab