The Beatles

home > The Beatles

Please Please Me Bass Tab

The Beatles

Difficulty: EasyEasy

tuner correct add songbook print version text version save to e-mail
chordsukulelecavacokeyboardtabbassdrumsharmonicsflute Guitar Pro
chords

Please Please Me

  		G||-------------------|-------------------------|-------------------------|
D||-------------------|-------------------------|-------------------------|
A||-------------------|--7----7--7--7--7--7--7--|--7--7--7--7--7--7--2----|
E||--------------7----|-------------------------|-------------------------|
                                                                        
-------------------------|-------------------------|--------------------------|
-------------------------|-------------------------|--------------------------|
--7----7--7--7--7--7--7--|--7--7--7--7--7--7--2----|--7--7--7--7--7--7--7--7--|
-------------------------|-------------------------|--------------------------|
                                                     
--------------------------|--------------------------|
--------------------------|--7--7--7--7--------------|
--7--7--7--7--7--7--7--7--|--------------7--7--7--7--|
--------------------------|--------------------------|
                                                     
--------------------------|--------------------------|
-----5--5--7--7--9--9--9--|--------------------------|
--7-----------------------|--7--7--7--7--7--7--7--7--|
--------------------------|--------------------------|
                                                                                
--------------------------|--------------------------|-------------9--9--------|
--------------------------|--7--7--7--7--------------|-------------------9--9--|
--7--7--7--7--7--7--7--7--|--------------7--7--7--7--|--7----7--7--------------|
--------------------------|--------------------------|-------------------------|
                                                                     
----------------------|----------------------|----------------------|
--7-------------7--6--|--4-------------4--5--|--6-------------6-----|
---------7------------|---------4------------|---------4---------4--|
----------------------|----------------------|----------------------|
                                                                            
---------------------|--------------------------|--------------------------|
--7-------------7----|--------------------------|--7--7--7--7--9--9--9--9--|
---------7-----------|--7--7--7--7--7--7--7--7--|--------------------------|
---------------------|--------------------------|--------------------------|
                                                      
--------------------------|--------------------------|
-----------6--9--9--6-----|--7--7--6--7--9--9--------|
--7--7--7--------------7--|--------------------------|
--------------------------|--------------------7--7--|
                                                      
--------------------------|--------------------------|
--------------------------|--------------------------|
--7--7--7--7--7--7--7--7--|--7--7--7--7--7--7--7--7--|
--------------------------|--------------------------|
                                                      
--------------------------|--------------------------|
--7--7--7--7--------------|-----5--5--7--7--9--9--9--|
--------------7--7--7--7--|--7-----------------------|
--------------------------|--------------------------|
                                                      
--------------------------|--------------------------|
--------------------------|--------------------------|
--7--7--7--7--7--7--7--7--|--7--7--7--7--7--7--7--7--|
--------------------------|--------------------------|
                                                                            
--------------------------|-------------9--9--------|----------------------|
--7--7--7--7--------------|-------------------9--9--|--7-------------7--6--|
--------------7--7--7--7--|--7----7--7--------------|---------7------------|
--------------------------|-------------------------|----------------------|
                                                                    
----------------------|----------------------|---------------------|
--4-------------4--5--|--6-------------6-----|--7-------------7----|
---------4------------|---------4---------4--|---------7-----------|
----------------------|----------------------|---------------------|
                                                      
--------------------------|--------------------------|
--------------------------|--7--7--7--7--9--9--9--9--|
--7--7--7--7--7--7--7--7--|--------------------------|
--------------------------|--------------------------|
                                                                      
--------------------------|-------------------|----------------------|
-----------6--9--9--6--9--|-------------------|----7-----------------|
--7--7--7-----------------|--7----------------|-------9----7---------|
--------------------------|-------------------|-----------------9----|
                                                                         
----------------------|------------------------|------------------------|
--9----7----6---------|----------6--9----6--9--|----------6--9----6-----|
-----------------9----|--7----7----------------|--7----7-------------7--|
----------------------|------------------------|------------------------|
                                                                        
----------------------|-----------------------|------------------------|
--7-------------------|--9----9--7--6---------|----------6--9----6-----|
-------9----7---------|------------------9----|--7----7-------------7--|
-----------------9----|-----------------------|------------------------|
                                                                         
-------------9----9--9--|------------------------|----------------------|
--7----7--7-------------|----------6--9----6-----|--7----6----9---------|
------------------------|--7----7-------------7--|----------------------|
------------------------|------------------------|-----------------7----|
                                                      
--------------------------|--------------------------|
--------------------------|--------------------------|
--7--7--7--7--7--7--7--7--|--7--7--7--7--7--7--7--7--|
--------------------------|--------------------------|
                                                      
--------------------------|--------------------------|
--7--7--7--7--------------|-----5--5--7--7--9--9--9--|
--------------7--7--7--7--|--7-----------------------|
--------------------------|--------------------------|
                                                      
--------------------------|--------------------------|
--------------------------|--------------------------|
--7--7--7--7--7--7--7--7--|--7--7--7--7--7--7--7--7--|
--------------------------|--------------------------|
                                                                            
--------------------------|-------------9--9--------|----------------------|
--7--7--7--7--------------|-------------------9--9--|--7-------------7--6--|
--------------7--7--7--7--|--7----7--7--------------|---------7------------|
--------------------------|-------------------------|----------------------|
                                                                    
----------------------|----------------------|---------------------|
--4-------------4--5--|--6-------------6-----|--7-------------7----|
---------4------------|---------4---------4--|---------7-----------|
----------------------|----------------------|---------------------|
                                                      
--------------------------|--------------------------|
--------------------------|--7--7--7--7--9--9--9--9--|
--7--7--7--7--7--7--7--7--|--------------------------|
--------------------------|--------------------------|
                                                      
--------------------------|--------------------------|
--------------------------|--7--7--7--7--9--9--9--9--|
--7--7--7--7--7--7--7--7--|--------------------------|
--------------------------|--------------------------|
                                                                           
--------------------------|--------------------------|--------------------|
--------------------------|--7--7--7--7--9--9--9--9--|--------------------|
--7--7--7--7--7--7--7--7--|--------------------------|--7--------9--------|
--------------------------|--------------------------|--------------------|
                                          
--------------------|-------------------||
--------------------|-------------------||
--------------------|--7----------------||
--8--------7--------|-------------------||


_______________________________________________________
Contribuição: ([email protected])
	  

Search Paypal
auto scroll beats size up size down change color hide chords drawings
tab show chords e-chords YouTube Clip e-chords hide all tabs e-chords go to top tab