The Beatles

home > The Beatles

Any Time At All Bass Tab

The Beatles

Difficulty: nolevelnolevel

by gilson%5Fita%5Fse

tuner correct add songbook print version text version save to e-mail
chordsukulelecavacokeyboardtabbassdrumsharmonicsflute Guitar Pro
chords

Any Time At All

Year: 1964 - Album: A Hard Day´s Night

  		 any time at     all                               any time..   all 
|---------------|---------------------------|------------------|---------------| 
|---------------|*--------------------------|------------------|---------------| 
|---------------|*--2-----2-----2--O--2--5--|--5-----5--5---5--|---------------| 
|---------------|---------------------------|------------------|--5-----5---5--| 
 
        any time    all   all  you've...      call  and I'll... 
|----------------|-------------------------|---------------------|---------------| 
|----------------|-------------------------|---------------------|---------------| 
|----------------|-------------------------|---------------------|--5-----5---5--| 
|--5---5--5---6--|--7-----7---7-----7---5--|--3-----3---5-----5--|---------------| 
 
|--------------------------| TO CODA 
|----------------------7---| 
|--5-----5---(--5---5--)---| 
|--------------------------| 
 
B 
1.2________________ 
     if you need         to love           just look 
     if the sun          away              I'll try 
|---------------|---------------------|---------------------|-------------------------|  
|---------------|---------------------|---------------------|-------------------------| 
|--5-----5---5--|--4-----4---------4--|--2-----2---------2--|--1-----1---------1------| 
|---------------|------------5--------|------------2--------|------------3---------3--| 
 
   I'll be there...      make you...              if you're...       sorry and sad... 
        there is...                               if you need...     shoulder to cry... 
|---------------------|---------------------|---------------------|---------------------| 
|---------------------|---------------------|---------------------|---------------------| 
|---------------------|---------------------|--5-----5---5--------|--4-----4---------4--| 
|--5-----5---5--------|--5-----5---5--------|---------------------|------------5--------| 
 
   I'd really...                               don't you be...       call me...  
   I hope it...                                call me...            I'll come... 
|---------------------|---------------------|---------------------|------------------------| 
|---------------------|---------------------|---------------------|---------------------7--| 
|--2-----2---------2--|--1-----1---------1--|---------------------|-----------(4)7-----(7)-| 
|------------2--------|------------3--------|--5-----5---2-----5--|--5-----5---------------| 
 
                              any time at 
|------------------------|---------------| 
|----(--4---7-----4--)---|--------------*| 
|--5-----5---------------|--5-----------*| 
|------------5-----5-----|---------------| 
 
C 
3_______________ 
|---------------|---------------|---------------|---------------|---------------| 
|---------------|---------------|---------------|---------------|---------------| 
|---------------|---------------|---------------|---------------|---------------| 
|--5-----5---5--|--5-----5---5--|--5-----5---5--|--5-----5---5--|--3-----3---3--| 
 
                                                                      any time at 
|---------------|---------------|---------------|---------------|-----------------| 
|---------------|---------------|---------------|---------------|-----------------| 
|---------------|---------------|---------------|--5-----5---5--|--5--------------| 
|--5-----5---5--|--5-----5---5--|--5-----5---5--|---------------|-----------------| 
 
CODA 
   all all you've...     call and...     there 
|---------------------|---------------|-------------------------|-----------| 
|---------------------|---------------|-------------------------|-----------| 
|---------------------|---------------|--5-----5---5---5-----5--|--5-----5--| 
|--3-----3---3-----3--|--5-----5---5--|-------------------------|-----------| 
 
[email protected] 
 
CLICIANE EU TE AMO!!!!!!!!!!!!!!!!!! 
 
_______________________________________________________ 

	  

Full key step upFull key step up
Half key step upHalf key step up
Half key step downHalf key step down
Full key step downFull key step down
Search Paypal
auto scroll beats size up size down change color hide chords drawings
tab show chords e-chords YouTube Clip e-chords hide all tabs e-chords go to top tab