Deep Purple

home > Deep Purple

Smoke On The Water Bass Tab

Deep Purple

Difficulty: BeginnerBeginner

tuner correct add songbook print version text version save to e-mail
chordsukulelecavacokeyboardtabbassdrummharmonicsflute Guitar Pro
chords

Smoke On The Water

Year: 1972 - Album: The Very Best of Deep Purple

(Richie Blacjmore/ Ian Gillan/ Roger Glover/ Jon Lord/ Ian Paice)

	  Intro: 


G|-------------------------------------------------------------| 
D|-------------------------------------------------------------| 
A|--------------------------------------------3-3-3-1----------| 
E|0-1-2-3-3-3-3-3-3-3-3-3-3-3-3-3-3-3-3-3-3-3---------3-3-3-3--| 


G|----------------------------------------------------------| 
D|----------------------------------------------------------| 
A|--------------------------------------------3-3-3-1-------| 
E|0-1-2-3-3-3-3-3-3-3-3-3-3-3-3-3-3-3-3-3-3-3---------3-3---| 


Verse: 

G|-------------------------------------------------------| 
D|-----5-----5-----5-----5-----5-----3------5-3----------| 
A|---5-----5-----5-----5-----5-----3------5-----5-3---3--| 
E|-3-----3-----3-----3-----3-----1------3-----------6---3| 

Chorus: 


G|--------------------------------------------------------------------| 
D|--------------------------------------------------------------------| 
A|--3-------1---1-----------1---1-------3-----------------------------| 
E|----6---3---3---3-1-3---3---3---3-1------6---0-1-2-3-3-3-3-3-3-3-3--| 


Intro: 


G|-------------------------------------------------------------| 
D|-------------------------------------------------------------| 
A|--------------------------------------------3-3-3-1----------| 
E|0-1-2-3-3-3-3-3-3-3-3-3-3-3-3-3-3-3-3-3-3-3---------3-3-3-3--| 


G|----------------------------------------------------------| 
D|----------------------------------------------------------| 
A|--------------------------------------------3-3-3-1-------| 
E|0-1-2-3-3-3-3-3-3-3-3-3-3-3-3-3-3-3-3-3-3-3---------3-3---| 


Verse: 

G|-------------------------------------------------------| 
D|-----5-----5-----5-----5-----5-----3------5-3----------| 
A|---5-----5-----5-----5-----5-----3------5-----5-3---3--| 
E|-3-----3-----3-----3-----3-----1------3-----------6---3| 

Chorus: 


G|--------------------------------------------------------------------| 
D|--------------------------------------------------------------------| 
A|--3-------1---1-----------1---1-------3-----------------------------| 
E|----6---3---3---3-1-3---3---3---3-1------6---0-1-2-3-3-3-3-3-3-3-3--| 


Solo: 

G|-----------------------------------------3------------------------| 
D|---------5---------------------------3-5---5-3-5-5-3--------------| 
A|-----3-5---5-3-------3-5-------2-3-6-----------------5-3----------| 
E|-3-6-----------6-3-6-----3-3-6---------------------------6-3-1-3--| 

	  

there isn't a video lesson for this song

request
Search
auto scroll beats size up size down change color hide chords drawings
tab show chords e-chords YouTube Clip e-chords hide all tabs e-chords go to top tab