Deep Purple

Smoke On The Waterr

Deep Purple

bass Expert expert

save to print version add songbook text version e-mail correct tuner
chordsukulelecavacokeyboardtabbassdrumsharmonicaflute Guitar Pro
close

there isn't a video lesson for this song

chords

Smoke On The Waterr

	  		

Tabber: Sh4it4n | [email protected]
Band: 
 Smoke on the Water

PLZ RATE THIS TAB ! :)

Intro: (first wait, then:)
G-----------------------------------------------------------------
D-----------------------------------------------------------------
A-----------------------------------------------------------------
E0/3-3-3-3-3-3-3-3-3-3-3-3-3-3-3-3-1-1-1-1-1-1-1-1-3-3-3-3-3-3-3-3


Verse:
G----------------------------------------------------------------
D----------------------------------------------------------------
A----------------------------------------------------------------
E-3-3-3-3-3-3-3-3-3-3-3-3-3-3-3-3-1-1-1-1-1-1-1-1-3-3-3-3-3-3-3-3

Refrain:
G----------------------------------------------------------------
D---------------------------------5-5-5-5-5-5-5-5-5-5-5-5-5-5-5-5
A-3-3-3-3-3-3-3-3-5-5-5-5-5-5-5-5--------------------------------
E----------------------------------------------------------------
  Smoke on the water               Fire in the Sky

...

		  

auto scroll beats size up size down change color hide chords drawings
tab show chords e-chords YouTube Clip e-chords hide all tabs e-chords go to top tab

share