The Police

home > The Police

Every breath you Take Bass Tab

The Police

Difficulty: BeginnerBeginner

by gigiopanella

tuner correct add songbook print version text version save to e-mail
chordsukulelecavacokeyboardtabbassdrumsharmonicsflute Guitar Pro
chords

Every breath you Take

Year: 1986 - Album: Every Breath You Take: The Singles

(Sting)

	  VERSE ONE  
   e e e e e e e e 2   e e e e e e e e 2  e e e e e e e e   e e e e e e e e   
+-------------------+-------------------+-----------------+-----------------+ 
|*-----------------*|*-----------------*|-----------------|-----------------| 
|*-----------------*|*-----------------*|-----------------|-5-5-5-5-5-5-5-5-| 
+--5-5-5-5-5-5-5-5--+--2-2-2-2-2-2-2-2--+-3-3-3-3-3-3-3-3-+-----------------+ 
 
   e e e e e e e e 2 
+-------------------+ 
|*-----------------*| 
|*-----------------*| 
+--5-5-5-5-5-5-5-5--+ 
 
 
VERSE TWO 
  e e e e e e e e 2   e e e e e e e e 2  e e e e e e e e   e e e e e e e e   
+------------------+-------------------+-----------------+-----------------+ 
|-----------------*|*-----------------*|-----------------|-----------------| 
|-----------------*|*-----------------*|-----------------|-5-5-5-5-5-5-5-5-| 
+-5-5-5-5-5-5-5-5--+--2-2-2-2-2-2-2-2--+-3-3-3-3-3-3-3-3-+-----------------+ 
 
   e e e e e e e e 2   
+-------------------+ 
|*-----------------*| 
|*-7-7-7-7-7-7-7-7-*| 
+-------------------+ 
 
 
Chorus 
  e e e e e e e e   e e e e e e e e    e e e e e e e e 2   e e e e e e e e 2  
+-----------------+-----------------+-------------------+-------------------+ 
|-----------------|-----------------|*-----------------*|*-----------------*| 
|-3-3-3-3-3-3-3-3-|-1-1-1-1-1-1-1-1-|*-----------------*|*-----------------*| 
+-----------------+-----------------+--5-5-5-5-5-5-5-5--+--7-7-7-7-7-7-7-7--+ 
 
   e e e e e e e e 2  
+-------------------+ 
|*-----------------*| 
|*-5-5-5-5-5-5-5-5-*| 
+-------------------+ 
 
 
BRIDGE 
   e e e e e e e e   e e e e e e e e   e e e e e e e e   e e e e e e e e 2  
+------------------+-----------------+-----------------+------------------+ 
|*-1-1---1-1-1---1-|-1-1---1-1-1---1-|-----3-------3---|-----3-------3---*| 
|*-----------------|-----------------|-----------------|-----------------*| 
+------1-------1---+-----1-------1---+-3-3---3-3-3---3-+-3-3---3-3-3---3--+ 
 
 
  e e e e e e e e    
+-----------------+ 
|-1-1---1-1-1---1-| 
|-----------------| 
+-----1-------1---+ 
 
 
OUTRO 
   e e e e e e e e   e e e e e e e e   e e e e e e e e   e e e e e e e e 4  
+------------------+-----------------+-----------------+------------------+ 
|*-----------------|-----------------|-----------------|-----------------*| 
|*-----------------|-----------------|-----------------|-3-3-3-3-3-3-3-3-*| 
+--5-5-5-5-5-5-5-5-+-5-5-5-5-5-5-5-5-+-2-2-2-2-2-2-2-2-+------------------+ 
 

	  

how-to-play-every-breath-you-take-by-the-police Play

there is a video lesson for this song

view more
Search
auto scroll beats size up size down change color hide chords drawings
tab show chords e-chords YouTube Clip e-chords hide all tabs e-chords go to top tab