The Beatles

home > The Beatles

I Want To Hold Your Hand Bass Tab

The Beatles

Difficulty: BeginnerBeginner

tuner correct add songbook print version text version save to e-mail
chordsukulelecavacokeyboardtabbassdrumsharmonicsflute Guitar Pro
chords

I Want To Hold Your Hand

Year: 2000 - Album: The Beatles 1

(Lennon / Mc Cartney)

  		

 The 
 

INTRO:
G ---------------------------------------------------------------
D --2-0-0-0-0-0---2-0-0-0-0-0---2-0-0-0-0-0-0-0-0-0-0-0-0-0-0-0-0
A 3-------------3-------------3----------------------------------
E ---------------------------------------------------------------

VERSE:X2
G ---------------------------------------------------------------
D 5-5--5---------------------------------------------------------
A ----5-5-5-5-4-5-6-7-7-7-7--------------------------------------
E -------------------------7-7-7-7-------------------------------

CHORUS:
G ---------------------------------------------------------------
D --------5--5\2---------5-55------------------------------------
A 3-2/5-5---------3-3/5-5----------------------------------------
E ---------------------------------------------------------------

2nd time just play the first notes...it goes like this...
G ---------------------------------------------------------------
D -----------5-------------------5-55----------------------------
A -3----5----------2-----3---5-----------------------------------
E ---------------------------------------------------------------

Bridge:
G----------------------------------------------------------------
D-------5-55--------7-77--------5-55---------5----5----5---------
A-5-55--------3-33--------5-55--------3-33--3-5--3-5--3-5>-------
E----------------------------------------------------------------

Outro:
G----------------------------------------------------------------
D---------5----------------------------2-5---2-5--5--------------
A-3---5------7---3---5-------3---5---3-----3---------------------
E------------------------7>--------------------------------------


A very easy song...i am pretty sure this is correct..but email me at [email protected] for any comments or problems...

	  

Search Paypal
auto scroll beats size up size down change color hide chords drawings
tab show chords e-chords YouTube Clip e-chords hide all tabs e-chords go to top tab