The Beatles

home > The Beatles

Twist and Shout Bass Tab

The Beatles

Difficulty: ExpertExpert

tuner correct add songbook print version text version save to e-mail
chordsukulelecavacokeyboardtabbassdrumsharmonicsflute Guitar Pro
chords

Twist and Shout

Year: 1963 -

(Phil Medley, Bert Russell)

	  

Intro/verse:
G--------------------------------------------------------------------------
D-----------2-------------------------------------------------------------
A--0-2-4-3---3-----------------------------------------------------------
E----------------1-1-5-3-33333------------------------------------------

Right before the aah's: 
G--------------------------------------------------------------------------
D-----------3-222-2------------------------------------------------------
A--3333--5----------5-3--------------------------------------------------
E---------------------------------------------------------------------------

Aah's:
G---------------------------------------------------------------------------
D-----------------------------------2222-----------------------------------
A-------------2-2-222---5-5-555------------------------------------------
E--3-3-333-----------------------------------------------------------------

That's about it

	  

there isn't a video lesson for this song

request
Search
auto scroll beats size up size down change color hide chords drawings
tab show chords e-chords YouTube Clip e-chords hide all tabs e-chords go to top tab