The Beatles

home > The Beatles

For No One Bass Tab

The Beatles

Difficulty: nolevelnolevel

by Adolfogomes

tuner correct add songbook print version text version save to e-mail
chordsukulelecavacokeyboardtabbassdrumsharmonicsflute Guitar Pro
chords

For No One

Year: 1966 - Album: Revolver [UK]

(Lennon / Mc Cartney)

  		For No One 
The Beatles 

Verse: 
G|------- ------- ------- -------|------- ------- ------- -------| 
D|-------------------------------|-------------------------------| 
A|-------------------------------|-------------------------------| 
E|-------------------------------|-------------------------------| 
          Your day    breaks,             your mind   aches, 


G|------- ------- ------- -------|------- ------- ------- -------| 
D|-------------------------------|-------------------------------| 
A|-------------------------------|-------------------------------| 
E|-------------------------------|-------------------------------| 
          You find        that all    her words           of  kind- 


G|------- ------- ------- -------|------- ------- ------- -------| 
D|-------------------------------|-------------------------------| 
A|-------------------------------|-------------------------------| 
E|-------------------------------|-------------------------------| 
          ness    lin  -  ger on          when    she no 


G|------- ------- ------- -------|------- ------- ------- -------| 
D|-------------------------------|-------------------------------| 
A|-------------------------------|-------------------------------| 
E|-------------------------------|-------------------------------| 
  lon  -  ger needs   you 

Verse: 
G|------- ------- ------- -------|------- ------- ------- -------| 
D|-------------------------------|-------------------------------| 
A|-------------------------------|-------------------------------| 
E|-------------------------------|-------------------------------| 
          She wakes   up,                 she makes   up, 


G|------- ------- ------- -------|------- ------- ------- -------| 
D|-------------------------------|-------------------------------| 
A|-------------------------------|-------------------------------| 
E|-------------------------------|-------------------------------| 
          She takes       her time,       and     doesn't     feel 


G|------- ------- ------- -------|------- ------- ------- -------| 
D|-------------------------------|-------------------------------| 
A|-------------------------------|-------------------------------| 
E|-------------------------------|-------------------------------| 
          she     has     to      hurry,          she no 


G|------- ------- ------- -------|------- ------- ------- -------| 
D|-------------------------------|-------------------------------| 
A|-------------------------------|-------------------------------| 
E|-------------------------------|-------------------------------| 
  lon  -  ger needs   you                 And     in  her     eyes 

Bridge: 
G|------- ------- ------- -------|------- ------- ------- -------| 
D|-------------------------------|6------------------------------| 
A|4------------------------------|-------------------------------| 
E|-------------------------------|-------------------------------| 
                  you     see     nothing, 


G|------- ------- ------- -------|------- ------- ------- 5---6--| 
D|-------------------------------|--------4-------6--------------| 
A|4-----------------------6------|7------------------------------| 
E|-------------------------------|-------------------------------| 
          no      sign    of      love    be  -   hind    her tears 


G|------- ------- ------- -------|------- ------- ------- -------| 
D|-------------------------------|6------------------------------| 
A|-------------------------------|-------------------------------| 
E|-------------------------------|-------------------------------| 
          cried           for no          one, 


G|------- ------- ------- -------|------- ------- ------- 5---6--| 
D|-------------------------------|--------4-------6--------------| 
A|4-----------------------4/6----|7------------------------------| 
E|--------------------4----------|-------------------------------| 
          A       love    that    should  have    las  -  ted years 


G|------- ------- ------- -------|------- ------- ------- -------| 
D|-------------------------------|4-----------4---4--------------| 
A|-------------------------------|-------------------------------| 
E|-------------------------------|-------------------------------| 


Verse: 
G|------- ------- ------- -------|------- ------- ------- -------| 
D|-------------------------------|-------------------------------| 
A|2-----------------------2------|1------------------------------| 
E|-------------------------------|-------------------------------| 
          You want    her,                you need    her, 


G|------- ------- ------- -------|------- ------- ------- -------| 
D|-------------------------------|-------------------------------| 
A|-------------------------------|-------------------------------| 
E|4-----------------------4------|2-----------------------2------| 
          And     yet     you don't       believe     her,    when 


G|------- ------- ------- -------|------- ------- ------- -------| 
D|-------------------------------|-------------------------------| 
A|-------------------------------|-------------------------------| 
E|0------------------------------|5------------------------------| 
          she says        her     love is     dead,       you 


G|------- ------- ------- -------|------- ------- ------- -------| 
D|-------------------------------|9-------------------9----------| 
A|------------------------9------|------------------------9------| 
E|7------------------------------|-------------------------------| 
  think   she needs   you 

Verse (solo): 
G|------- ------- ------- -------|------- ------- ------- -------| 
D|9------------------------------|8-------------------8---8------| 
A|-------------------------------|-------------------------------| 
E|-------------------------------|-------------------------------| 



G|------- ------- ------- -------|------- ------- ------- -------| 
D|6-----------------------6------|4------------------------------| 
A|-------------------------------|-------------------------------| 
E|-------------------------------|-------------------------------| 



G|------- ------- ------- -------|------- ------- ------- -------| 
D|-------------------------------|7-----------------------7------| 
A|7------------------------------|-------------------------------| 
E|-------------------------------|-------------------------------| 



G|------- ------- ------- -------|------- ------- ------- -------| 
D|9-------------------9----------|-------------------------------| 
A|------------------------9------|-------------------------------| 
E|-------------------------------|7-----------------------7------| 
                                          And     in  her     eyes 

Bridge: 
G|------- ------- ------- -------|------- ------- ------- -------| 
D|-------------------------------|6------------------------------| 
A|4------------------------------|-------------------------------| 
E|-------------------------------|-------------------------------| 
                  you     see     nothing, 


G|------- ------- ------- -------|------- ------- ------- 5---6--| 
D|-------------------------------|--------4-------6--------------| 
A|4-------------------4---6------|7------------------------------| 
E|-------------------------------|-------------------------------| 
          no      sign    of      love    be  -   hind    her tears 


G|------- ------- ------- -------|------- ------- ------- -------| 
D|-------------------------------|6------------------------------| 
A|-------------------------------|-------------------------------| 
E|-------------------------------|-------------------------------| 
          cried           for no          one, 


G|------- ------- ------- -------|------- ------- ------- 5---6--| 
D|-------------------------------|--------4-------6--------------| 
A|4-----------------------6------|7------------------------------| 
E|--------------------4----------|-------------------------------| 
          A       love    that    should  have    las  -  ted years 


G|------- ------- ------- -------|------- ------- ------- -------| 
D|-------------------------------|4---------------4--------------| 
A|-------------------------------|-------------------------------| 
E|-------------------------------|-------------------------------| 


Verse: 
G|------- ------- ------- -------|------- ------- ------- -------| 
D|-------------------------------|-------------------------------| 
A|2------------------------------|1------------------------------| 
E|-------------------------------|-------------------------------| 
          You stay    home,               she goes    out, 


G|------- ------- ------- -------|------- ------- ------- -------| 
D|-------------------------------|-------------------------------| 
A|-------------------------------|-------------------------------| 
E|4------------------------------|2------------------------------| 
          She says        that    long    a - go          she 


G|------- ------- ------- -------|------- ------- ------- -------| 
D|-------------------------------|-------------------------------| 
A|-------------------------------|-------------------------------| 
E|0------------------------------|5------------------------------| 
          knew    someone,    but now     he's gone,      she 


G|------- ------- ------- -------|------- ------- ------- -------| 
D|-------------------------------|-------------------------------| 
A|-------------------------------|14-----------------------------| 
E|7-----------------------14-----|------------------------14-----| 
  doesn't     need    him 

Verse: 
G|------- ------- ------- -------|------- ------- ------- -------| 
D|-------------------------------|-------------------------------| 
A|14----------------------14--14-|13--------------------------13-| 
E|-------------------------------|-------------------------------| 
          Your day    breaks,             your mind   aches, 


G|------- ------- ------- -------|------- ------- ------- -------| 
D|-------------------------------|-------------------------------| 
A|13\-11------------------11--11-|11\-9-------------------9---9--| 
E|-------------------------------|-------------------------------| 
          There   will    be  times       when all        the things 


G|------- ------- ------- -------|------- ------- ------- -------| 
D|-------------------------------|7-----------------------7---7--| 
A|9-\-7-------------------7---7--|-------------------------------| 
E|-------------------------------|-------------------------------| 
          she said        will    fill    your head,      you 


G|------- ------- ------- -------|------- ------- ------- -------| 
D|7-/-9---------------9----------|-------------------------------| 
A|------------------------9------|-------------------------------| 
E|-------------------------------|7------------------------------| 
  won't   forget      her                 And     in  her     eyes 

Bridge: 
G|------- ------- ------- -------|------- ------- ------- -------| 
D|-------------------------------|6-----------------------6------| 
A|4-----------------------7---7--|-------------------------------| 
E|-------------------------------|-------------------------------| 
                  you     see     nothing, 


G|------- ------- ------- -------|------- ------- ------- 5---6--| 
D|-------------------------------|--------4-------6--------------| 
A|4---------------4-------6------|7------------------------------| 
E|------------4------------------|-------------------------------| 
          no      sign    of      love    be  -   hind    her tears 


G|------- ------- ------- -------|------- ------- ------- -------| 
D|-------------------------------|6------------------------------| 
A|-------------------------------|-------------------------------| 
E|-------------------------------|-------------------------------| 
          cried           for no          one, 


G|------- ------- ------- -------|------- ------- ------- 5---6--| 
D|-------------------------------|--------4-------6--------------| 
A|4---------------4-------6------|7------------------------------| 
E|------------4------------------|-------------------------------| 
          A       love    that    should  have    las  -  ted years 


G|------- ------- ------- -------|-------------------------------| 
D|-------------------------------|4---4-------------------4------| 
A|-------------------------------|-------------------------------| 
E|-------------------------------|-------------------------------| 

Escrita por: John Lennon e Paul McCartney 
	  

Full key step upFull key step up
Half key step upHalf key step up
Half key step downHalf key step down
Full key step downFull key step down
Search Paypal
auto scroll beats size up size down change color hide chords drawings
tab show chords e-chords YouTube Clip e-chords hide all tabs e-chords go to top tab