The Beatles

home > The Beatles

Eleanor Rigby Tab

The Beatles

Difficulty: EasyEasy

by Teusalves

tuner correct add songbook print version text version save to e-mail
chordsukulelecavacokeyboardtabbassdrumsharmonicsflute Guitar Pro
chords

Eleanor Rigby

Year: 1966 - Album: The Beatles 1

(Lennon / Mc Cartney)

  		Afinação: D  A  D  G  B  E 

e|----------------------------------------------------------------------------------| 
B|----------------------------------------------------------------------------------| 
G|------2---4------------------------------2---4/5\4--------------------------------|             
D|------3-X-5---2p0------------------------3-X-5/6\5-----2p0------------------------| 
A|------5---7---------2p0-2p0--------------5---7/8\7-------------2p0-2p0------------| 
D|--0------------------------------3p0--------------------------------------3p0-----| 

e|----------------------------------------------------------------------------------| 
B|----------------------------------------------------------------------------------| 
G|--2---4-------------------------------2---4/4\4-----------------------------------|              
D|--3---5----2p0------------------------3---5/6\5-----------------------------------| 
A|--5-X 7----------2p0--2p0-------------5-X-7/8\7-----------------------------------| 
D|----------------------------3p0---------------------------------------------------| 


e|---------5-----------------5--8--7p5---------------5-----5------------------------| 
B|--6/8-------6-------6p8-----------------hn13----------8------8-----6----8---------| 
G|--5/7-----------7-----------------------hn13----------------------------7---------| 
D|--0-------------------------------------hn13----------------------------5---------| 
A|------------------------------------------------------------------------6---------| 
D|----------------------------------------------------------------------------------| 

e|----------5---6--5----------------------------------------------------------------| 
B|-6p8----------6--6----------------------------------------------------------------| 
G|-6------------6--6----------------------------------------------------------------| 
D|----------------------------------------------------------------------------------| 
A|-0--------------------------------------------------------------------------------| 
D|----------------------------------------------------------------------------------| 


e|---------------------5------------------------------------------------------------| 
B|--8---6---6------------6---------3------------------------6~----------------------| 
G|--5-------5------------------4---4------hn8---hn8--hn13-------7-------------------| 
D|--5-------5------5-----------3---3------hn8---------------------------------------| 
A|----------------------------------------------------------------------------------| 
D|--------------0-----------0-------------8--------------------------0--------------| (2X) 
                                                                                                    

e|----------------5----------------13---------------------------0-------------------| 
B|--6---8-------6----7---3---10--------------------------------6--------------------| 
G|--8----------8-----4-----------------hn7--hn13--hn13-------7----------------------|                
D|--6---------6------3--------------------------------------------------------------| 
A|--8--------8------------------13--------------------------------------------------| 
D|--6-------6--------0-------------------------------------0------------------------| (2X) 




e|--10---------------10-12-13/15-15-13-12/6-8-5------5-----5------------------------| 
B|-------8----------------------------------------------8-----6------5--------------| 
G|-----7---7------------------------------------------------------7-----------------| 
D|-8--------------------------------------------------------------------------------| 
A|------------hn13------------------------------------------------------------------| 
D|------------------------------------------------0---------------------------------| 




e|--------------10--------------10-12-13/15-15-13-12/8-8-5--------------------------| 
B|----5p6------------8--------------------------------------------------------------| 
G|-7------7--------7----------------------------------------------------------------| 
D|-----------8-----------hn13-------------------------------------------------------| 
A|----------------------------------------------------------------------------------| 
D|--------------------------------------------------------------0-------------------| 


e|--5------5------------------------------------------------------------------------| 
B|-----8------6------5--------------5p6---------------------------------------------| 
G|---------------7-------7------7---------------------------------------------------| 
D|----------------------------------------------------------------------------------| 
A|----------------------------------------------------------------------------------| 
D|--------------------------0-------------------------------------------------------| 
	  

Full key step upFull key step up
Half key step upHalf key step up
Half key step downHalf key step down
Full key step downFull key step down
Search Paypal
auto scroll beats size up size down change color hide chords drawings
tab show chords e-chords YouTube Clip e-chords hide all tabs e-chords go to top tab