The Beatles

home > The Beatles

Love Me Do Bass Tab

The Beatles

Difficulty: BeginnerBeginner

tuner correct add songbook print version text version save to e-mail
chordsukulelecavacokeyboardtabbassdrummharmonicsflute Guitar Pro
chords

Love Me Do

Year: 2000 - Album: The Beatles 1

(Lennon / Mc Cartney)

  		

  

TABBED BY JIM COTTRELL ([email protected]) WWW.CLIK.TO/AMBRE

|       |       |       |        |       |       |       |
|0-------------------------------|----------------0---------------|
|----------------0---------------|--------------------------------|
|--------------------------------|3-------------------------------|
|--------------------------------|--------------------------------|

 |       |       |       |        |       |       |       |
|0-------------------------------|----------------0---------------|
|----------------0---------------|--------------------------------|
|--------------------------------|3-------------------------------|
|--------------------------------|--------------------------------|

 |       |       |       |        |       |       |       |
|0-------------------------------|----------------0---------------|
|----------------0---------------|--------------------------------|
|--------------------------------|3-------------------------------|
|--------------------------------|--------------------------------|

 |       |       |       |        |       |       |       |
|0-------------------------------|0-------------------------------|
|----------------0---------------|----------------0---------------|
|--------------------------------|--------------------------------|
|--------------------------------|--------------------------------|

 |       |       |       |        |       |       |       |
|0-------------------------------|----------------0---------------|
|----------------0---------------|--------------------------------|
|--------------------------------|3-------------------------------|
|--------------------------------|--------------------------------|

 |       |       |       |        |       |       |       |
|0-------------------------------|----------------0---------------|
|----------------0---------------|--------------------------------|
|--------------------------------|3-------------------------------|
|--------------------------------|--------------------------------|

 |       |       |       |        |       |       |       |
|0-------------------------------|----------------0---------------|
|----------------0---------------|--------------------------------|
|--------------------------------|3-------------------------------|
|--------------------------------|--------------------------------|

 |       |       |       |        |       |       |       |
|----------------0---------------|----------------0---------------|
|--------------------------------|--------------------------------|
|3-------------------------------|3-------------------------------|
|--------------------------------|--------------------------------|

 |       |       |       |        |       |       |       |
|--------------------------------|0-------------------------------|
|--------------------------------|----------------0---------------|
|3-------------------------------|--------------------------------|
|--------------------------------|--------------------------------|

 |       |       |       |        |       |       |       |
|----------------0---------------|0-------------------------------|
|--------------------------------|----------------0---------------|
|3-------------------------------|--------------------------------|
|--------------------------------|--------------------------------|

 |       |       |       |        |       |       |       |
|----------------0---------------|0-------------------------------|
|--------------------------------|----------------0---------------|
|3-------------------------------|--------------------------------|
|--------------------------------|--------------------------------|

 |       |       |       |        |       |       |       |
|----------------0---------------|0-------------------------------|
|--------------------------------|----------------0---------------|
|3-------------------------------|--------------------------------|
|--------------------------------|--------------------------------|

 |       |       |       |        |       |       |       |
|----------------0---------------|0-------------------------------|
|--------------------------------|----------------0---------------|
|3-------------------------------|--------------------------------|
|--------------------------------|--------------------------------|

 |       |       |       |        |       |       |       |
|----------------0---------------|----------------0---------------|
|--------------------------------|--------------------------------|
|3-------------------------------|3-------------------------------|
|--------------------------------|--------------------------------|

 |       |       |       |        |       |       |       |
|----------------0---------------|--------------------------------|
|--------------------------------|--------------------------------|
|3-------------------------------|3-------------------------------|
|--------------------------------|--------------------------------|

 |       |       |       |        |       |       |       |
|0-------------------------------|----------------0---------------|
|----------------0---------------|--------------------------------|
|--------------------------------|3-------------------------------|
|--------------------------------|--------------------------------|

 |       |       |       |        |       |       |       |
|0-------------------------------|0-------0-----------------------|
|----------------0---------------|----------------4-------2-------|
|--------------------------------|--------------------------------|
|--------------------------------|--------------------------------|

 |       |       |       |        |       |       |       |
|----------------2---------------|----------------2---------------|
|0-------------------------------|0-------------------------------|
|--------------------------------|--------------------------------|
|--------------------------------|--------------------------------|

 |       |       |       |        |       |       |       |
|----------------0---------------|0-------------------------------|
|--------------------------------|----------------0---------------|
|3-------------------------------|--------------------------------|
|--------------------------------|--------------------------------|

 |       |       |       |        |       |       |       |
|----------------2---------------|----------------2---------------|
|0-------------------------------|0-------------------------------|
|--------------------------------|--------------------------------|
|--------------------------------|--------------------------------|

 |       |       |       |        |       |       |       |
|----------------0---------------|0---------------0---------------|
|--------------------------------|--------0-----------------------|
|3-----------------------3-------|--------------------------------|
|--------------------------------|--------------------------------|

 |       |       |       |        |       |       |       |
|0-------------------------------|----------------0---------------|
|----------------0---------------|--------------------------------|
|--------------------------------|3-------------------------------|
|--------------------------------|--------------------------------|

 |       |       |       |        |       |       |       |
|0-------------------------------|----------------0---------------|
|----------------0---------------|--------------------------------|
|--------------------------------|3-------------------------------|
|--------------------------------|--------------------------------|

 |       |       |       |        |       |       |       |
|0-------------------------------|----------------0---------------|
|----------------0---------------|--------------------------------|
|--------------------------------|3-------------------------------|
|--------------------------------|--------------------------------|

 |       |       |       |        |       |       |       |
|----------------0---------------|----------------0---------------|
|--------------------------------|--------------------------------|
|3-------------------------------|3-------------------------------|
|--------------------------------|--------------------------------|

 |       |       |       |        |       |       |       |
|--------------------------------|0-------------------------------|
|--------------------------------|----------------0---------------|
|3-------------------------------|--------------------------------|
|--------------------------------|--------------------------------|

 |       |       |       |        |       |       |       |
|----------------0---------------|0-------------------------------|
|--------------------------------|----------------0---------------|
|3-------------------------------|--------------------------------|
|--------------------------------|--------------------------------|

 |       |       |       |        |       |       |       |
|0-------0-----------------------|----------------2---------------|
|----------------4-------2-------|0-------------------------------|
|--------------------------------|--------------------------------|
|--------------------------------|--------------------------------|

 |       |       |       |        |       |       |       |
|----------------2---------------|----------------0---------------|
|0-------------------------------|--------------------------------|
|--------------------------------|3-------------------------------|
|--------------------------------|--------------------------------|

 |       |       |       |        |       |       |       |
|0-------------------------------|----------------2---------------|
|----------------0---------------|0-------------------------------|
|--------------------------------|--------------------------------|
|--------------------------------|--------------------------------|

 |       |       |       |        |       |       |       |
|----------------2---------------|----------------0---------------|
|0-------------------------------|--------------------------------|
|--------------------------------|3-------------------------------|
|--------------------------------|--------------------------------|

 |       |       |       |        |       |       |       |
|0-------------------------------|0-------------------------------|
|----------------0---------------|----------------0---------------|
|--------------------------------|--------------------------------|
|--------------------------------|--------------------------------|

 |       |       |       |        |       |       |       |
|0-------------------------------|0-------------------------------|
|----------------0---------------|----------------0---------------|
|--------------------------------|--------------------------------|
|--------------------------------|--------------------------------|

 |       |       |       |        |       |       |       |
|0-------------------------------|0-------------------------------|
|----------------0---------------|----------------0---------------|
|--------------------------------|--------------------------------|
|--------------------------------|--------------------------------|

 |       |       |       |        |       |       |       |
|----------------0---------------|0-------------------------------|
|--------------------------------|----------------0---------------|
|3-------------------------------|--------------------------------|
|--------------------------------|--------------------------------|

 |       |       |       |        |       |       |       |
|----------------0---------------|0-------------------------------|
|--------------------------------|----------------0---------------|
|3-------------------------------|--------------------------------|
|--------------------------------|--------------------------------|

 |       |       |       |        |       |       |       |
|----------------0---------------|----------------0---------------|
|--------------------------------|--------------------------------|
|3-------------------------------|3-------------------------------|
|--------------------------------|--------------------------------|

 |       |       |       |        |       |       |       |
|----------------0---------------|--------------------------------|
|--------------------------------|--------------------------------|
|3-------------------------------|3-------------------------------|
|--------------------------------|--------------------------------|

 |       |       |       |        |       |       |       |
|0-------------------------------|----------------0---------------|
|----------------0---------------|--------------------------------|
|--------------------------------|3-------------------------------|
|--------------------------------|--------------------------------|

 |       |       |       |        |       |       |       |
|0-------------------------------|----------------0---------------|
|----------------0---------------|--------------------------------|
|--------------------------------|3-------------------------------|
|--------------------------------|--------------------------------|

 |       |       |       |        |       |       |       |
|0-------------------------------|----------------0---------------|
|----------------0---------------|--------------------------------|
|--------------------------------|3-------------------------------|
|--------------------------------|--------------------------------|

 |       |       |       |        |       |       |       |
|0-------------------------------|----------------0---------------|
|----------------0---------------|--------------------------------|
|--------------------------------|3-------------------------------|
|--------------------------------|--------------------------------|

 |       |       |       |        |       |       |       |
|0-------------------------------|----------------0---------------|
|----------------0---------------|--------------------------------|
|--------------------------------|3-------------------------------|
|--------------------------------|--------------------------------|

 |       |       |       |        |       |       |       |
|0-------------------------------|----------------0---------------|
|----------------0---------------|--------------------------------|
|--------------------------------|3-------------------------------|
|--------------------------------|--------------------------------|

 |       |       |       |        |       |       |       |
|0-------------------------------|----------------0---------------|
|----------------0---------------|--------------------------------|
|--------------------------------|3-------------------------------|
|--------------------------------|--------------------------------|

 |       |       |       |
|0-------------------------------|
|----------------0---------------|
|--------------------------------|
|--------------------------------|

WWW.CLIK.TO/AMBRE

	  

Search Paypal
auto scroll beats size up size down change color hide chords drawings
tab show chords e-chords YouTube Clip e-chords hide all tabs e-chords go to top tab