The Beatles

home > The Beatles

Baby It's You Bass Tab

The Beatles

Difficulty: BeginnerBeginner

by Adolfogomes

tuner correct add songbook print version text version save to e-mail
chordsukulelecavacokeyboardtabbassdrumsharmonicsflute Guitar Pro
chords

Baby It's You

Year: 1962 -

(Burt Bacharach; Mack David; Barney Williams)

  		Baby It's You 
The Beatles 

Intro: 
G|------- ------- ------- -------|------- ------- ------- -------| 
D|5-----------------------5------|-------------------------------| 
A|------------5------------------|7-----------------------7------| 
E|-------------------------------|------------7------------------| 

          sha la  la  la  la  la  la 

G|------- ------- ------- -------|------- ------- ------- -------| 
D|5-----------------------5------|-------------------------------| 
A|------------5------------------|7-----------------------7------| 
E|-------------------------------|------------7------------------| 

          sha la  la  la  la  la  la 

G|------- ------- ------- -------|------- ------- ------- -------| 
D|5-----------------------5------|-------------------------------| 
A|------------5------------------|7------------------------------| 
E|-------------------------------|-------------------------------| 

          sha la  la  la  la  la  la              sha la  la  la 
Verse: 
G|------- ------- ------- -------|------- ------- ------- -------| 
D|------------5-----------5------|------------5-----------5------| 
A|3---------------------------2--|3---------------------------5--| 
E|-------------------------------|-------------------------------| 
          It's    way you smile,              that touched my 
             not the 
  la 
G|------- ------- ------- -------|------- ------- ------- -------| 
D|5-----------5---------------4--|5-----------5-----------5------| 
A|------------------------5------|-------------------------------| 
E|-------------------------------|-------------------------------| 
  heart, 
                                                  sha la  la  la 

G|------- ------- ------- -------|------- ------- ------- -------| 
D|------------5-----------5------|------------5-----------5------| 
A|3---------------------------2--|3---------------------------5--| 
E|-------------------------------|-------------------------------| 
          It's    way you kiss,               that tears  me  a- 
             not the 
  la 
G|------- ------- ------- -------|------- ------- ------- -------| 
D|5---------------------------4--|5-----------5-----------5---4--| 
A|------------5-----------5------|--------------------5----------| 
E|-------------------------------|-------------------------------| 
  part                                            Wo- oh, 


G|------- ------- ------- -------|------- ------- ------- -------| 
D|-------------------------------|-------------------------------| 
A|7-----------7---------------5--|7-----------7-----------7------| 
E|------------------------7------|-------------------------------| 
          many, many,        many nights go   by, 
  Ooooooooooooooooooooooooooooooooooooooooooooooooooooooooooooooo 

G|------- ------- ------- -------|------- ------- ------- -------| 
D|7-----------7---------------5--|7-----------7-----------7------| 
A|------------------------7------|----------------------------5--| 
E|-------------------------------|-------------------------------| 
      I   sit a - lone       at  home and I cry          o - ver 
  ooooooooooooooooooooooooooooooooooooooooooooooooooooooooooooooo 

G|------- ------- ------- -------|------- ------- ------- -------| 
D|5-----------5-----------5---4--|-------------------------------| 
A|--------------------5----------|7-----------7-----------7------| 
E|-------------------------------|-------------------------------| 
  you,                what can I  do? 


G|------- ------- ------- -------|------- ------- ------- -------| 
D|------------5------------------|------------7-----------7------| 
A|3-----------------------3------|5------------------------------| 
E|-------------------------------|-------------------------------| 
          Can't   help    my      self, 
  Aaaaaaaaaaaaaaaaaaaaaaaaaaaaaaaaaaaaaaaaaaaaaaaaaaaaaaaaaaaaaaa 

G|------- ------- ------- -------|------- ------- ------- -------| 
D|-------------------------------|5-----------------------5---4--| 
A|5------------------------------|------------5------------------| 
E|-------------------------------|-------------------------------| 
              cause baby,    it's you 
  aa                                      sha la  la  la  la  la 

G|------- ------- ------- -------|------- ------- ------- -------| 
D|-------------------------------|5-----------------------5------| 
A|7-----------------------7------|------------5------------------| 
E|------------7------------------|-------------------------------| 
                  baby,      it's you 
  la                                      sha la  la  la  la  la 

G|------- ------- ------- -------| 
D|-------------------------------| 
A|7-----------------------7------| 
E|------------7------------------| 

  la              sha la  la  la 
Verse: 
G|------- ------- ------- -------|------- ------- ------- -------| 
D|------------5-----------5------|------------5-----------5------| 
A|3---------------------------2--|3---------------------------5--| 
E|-------------------------------|-------------------------------| 
          You should  what    say                     a - bout 
                  hear    they 
  la 
G|------- ------- ------- -------|------- ------- ------- -------| 
D|5-----------5---------------4--|5-----------------------5------| 
A|------------------------5------|------------5------------------| 
E|-------------------------------|-------------------------------| 
  you,            cheat,          cheat! 
                                                  sha la  la  la 

G|------- ------- ------- -------|------- ------- ------- -------| 
D|------------5-----------5------|------------5-----------5------| 
A|3---------------------------2--|3---------------------------5--| 
E|-------------------------------|-------------------------------| 
          They say,   they say    never   never   e - ver     been 
                              you've  never 
  la 
G|------- ------- ------- -------|------- ------- ------- -------| 
D|5-----------5---------------4--|5-----------5-----------5---4--| 
A|------------------------5------|-------------------------------| 
E|-------------------------------|-------------------------------| 
  true                                            Wo- oh, 
                  cheat,          cheat! 

G|------- ------- ------- -------|------- ------- ------- -------| 
D|-------------------------------|-------------------------------| 
A|7-----------7---------------5--|7-----------7-----------7------| 
E|------------------------7------|-------------------------------| 
      It  doesn't matter          what they   say, 
  Ooooooooooooooooooooooooooooooooooooooooooooooooooooooooooooooo 

G|------- ------- ------- -------|------- ------- ------- -------| 
D|7-----------7---------------5--|7-----------7-----------7------| 
A|------------------------7------|----------------------------5--| 
E|-------------------------------|-------------------------------| 
      I   know I'm gonna  love you any    old     way, what can I 
  ooooooooooooooooooooooooooooooooooooooooooooooooooooooooooooooo 

G|------- ------- ------- -------|------- ------- ------- -------| 
D|5-----------------------5---4--|-------------------------------| 
A|------------5-------5----------|7-----------------------7------| 
E|-------------------------------|------------7------------------| 
  do,                 when it's true? 


G|------- ------- ------- -------|------- ------- ------- -------| 
D|------------5------------------|------------7-----------7------| 
A|3-----------------------3------|5------------------------------| 
E|-------------------------------|-------------------------------| 
          Don't   want    no  -   bo- dy,     no- bo- dy, 
  Aaaaaaaaaaaaaaaaaaaaaaaaaaaaaaaaaaaaaaaaaaaaaaaaaaaaaaaaaaaaaaa 

G|------- ------- ------- -------|------- ------- ------- -------| 
D|-------------------------------|5-----------------------5---4--| 
A|5------------------------------|------------5------------------| 
E|-------------------------------|-------------------------------| 
              cause baby,    it's you 
  aa                                      sha la  la  la  la  la 

G|------- ------- ------- -------|------- ------- ------- -------| 
D|-------------------------------|5-----------------------5------| 
A|7---------------------------5--|------------5------------------| 
E|------------7-----------7------|-------------------------------| 
                  baby,      it's you 
  la                                      sha la  la  la  la  la 

G|------- ------- ------- -------| 
D|-------------------------------| 
A|7-----------------------7------| 
E|------------7------------------| 

  la 
Verse (half-solo): 
G|------- ------- ------- -------|------- ------- ------- -------| 
D|------------5------------------|------------7---------------4--| 
A|3-----------------------3------|5-------------------5---7------| 
E|-------------------------------|-------------------------------| 



G|------- ------- ------- -------|------- ------- ------- -------| 
D|5---------------------------4--|5------------------------------| 
A|------------5-----------5------|------------5------------------| 
E|-------------------------------|-------------------------------| 



G|------- ------- ------- -------|------- ------- ------- -------| 
D|------------5------------------|------------7---------------4--| 
A|3-----------------------3---4--|5-------------------5---7------| 
E|-------------------------------|-------------------------------| 



G|------- ------- ------- -------|------- ------- ------- -------| 
D|5---------------------------4--|5-----------5-----------5---4--| 
A|------------5-----------5------|--------------------5----------| 
E|-------------------------------|-------------------------------| 
                                                  Wo- oh, 


G|------- ------- ------- -------|------- ------- ------- -------| 
D|-------------------------------|-------------------------------| 
A|7-----------7---------------5--|7-----------7------------------| 
E|------------------------7------|------------------------7------| 
      It  doesn't matter          what they   say, 
  Ooooooooooooooooooooooooooooooooooooooooooooooooooooooooooooooo 

G|------- ------- ------- -------|------- ------- ------- -------| 
D|7-----------7---------------5--|7-----------7-----------7------| 
A|------------------------7------|----------------------------5--| 
E|-------------------------------|-------------------------------| 
      I   know I'm gonna  love you any    old     way, what can I 
  ooooooooooooooooooooooooooooooooooooooooooooooooooooooooooooooo 

G|------- ------- ------- -------|------- ------- ------- -------| 
D|5-----------5-----------5---4--|-------------------------------| 
A|--------------------5----------|7-----------7-----------7------| 
E|-------------------------------|-------------------------------| 
  do,                 when it's true? 


G|------- ------- ------- -------|------- ------- ------- -------| 
D|------------5------------------|------------7-----------7------| 
A|3-----------------------3------|5------------------------------| 
E|-------------------------------|-------------------------------| 
          Don't   want    no  -   bo- dy,     no- bo- dy, 
  Aaaaaaaaaaaaaaaaaaaaaaaaaaaaaaaaaaaaaaaaaaaaaaaaaaaaaaaaaaaaaaa 

G|------- ------- ------- -------|------- ------- ------- -------| 
D|-------------------------------|5-----------------------5---4--| 
A|5------------------------------|------------5------------------| 
E|-------------------------------|-------------------------------| 
              cause baby,    it's you 
  aa                                      sha la  la  la  la  la 

G|------- ------- ------- -------|------- ------- ------- -------| 
D|-------------------------------|5-----------------------5------| 
A|7-----------------------7------|------------5------------------| 
E|------------7------------------|-------------------------------| 
                  baby,      it's you 
  la                                      sha la  la  la  la  la 

G|------- ------- ------- -------| 
D|-------------------------------| 
A|7-----------------------5------| 
E|------------7------------------| 
          Don't   leave me all a- 
  la 
Outro: 
G|------- ------- ------- -------|------- ------- ------- -------| 
D|5-----------------------5------|-------------------------------| 
A|------------5------------------|7-----------------------7------| 
E|-------------------------------|------------7------------------| 
  lone!                                               Come on home 
          sha la  la  la  la  la  la 
fade... 

Escrita por: Mack David, Barney Williams e Burt Bacharach 
	  

Search Paypal
auto scroll beats size up size down change color hide chords drawings
tab show chords e-chords YouTube Clip e-chords hide all tabs e-chords go to top tab