The Beatles

home > The Beatles

Within you without you Tab

The Beatles

Difficulty: ExpertExpert

by europeu

tuner correct add songbook print version text version save to e-mail
chordsukulelecavacokeyboardtabbassdrumsharmonicsflute Guitar Pro
chords

Within you without you

  		G1 just slowly and timely play this 
 
C#--0------------------| 
F#----0----------------| 
G#------0--------------| 
C#--------0------------| 
G#----------0----------| 
C#------------0--------|    *You might be better off using a key board set 
to Sitar with a sustain pedal and keep that running the whole time. 
 
 
G2(standard)lead#1 
 
E---------------------------------------------------------------------------| 
B----6-7-9-12-14~-----14~12~---9-12-9-7-6-7-6--4-2~---0-2-2~~~~~~~----------| 
G---------------------------------------------------------------------------| 
D---------------------------------------------------------------------------| 
A---------------------------------------------------------------------------| 
E---------------------------------------------------------------------------| 
 
 
then on a keyboard set to harpsicord or koto, play this scale quick. 
 
*Start at an octave below middle C 
 
Riff1: C#-F-F#-G#-B-C#-F-F#-G#-B-C# 
 
*End an ocatave above middle C 
 
 
Verse prt.1 
 
E-------------------------------------------------------------------------| 
B---6-7-9--12~~~-------12-11---6-9-4-9-7--6~------6-7-9--12~~~------12-11-| 
G-------------------------------------------------------------------------| 
D-------------------------------------------------------------------------| 
A-------------------------------------------------------------------------| 
E-------------------------------------------------------------------------| 
 
E-------------------------------------------------------------------------| 
B---6-9-4-9-7-6~~~---6-7-9--6---6-7-/-11-9-11~~~---6-7-9--12-14~~~~~------| 
G-------------------------------------------------------------------------| 
D-------------------------------------------------------------------------| 
A-------------------------------------------------------------------------| 
E-------------------------------------------------------------------------| 
 
E-------------------------------------------------------------------------| 
B---12-14-12-9-7/6/7/6--7/9-6---------------------------------------------| 
G-------------------------------------------------------------------------| 
D-------------------------------------------------------------------------| 
A-------------------------------------------------------------------------| 
E-------------------------------------------------------------------------| 
 
 
Prt.2 
 
E--------------------------------------------------------------------------| 
B--6-7-9--12~~--12-11--6-9-4-9-7--6~----6-7-9--12~~~--12-11--6-9-4-9-7--6~-| 
G--------------------------------------------------------------------------| 
D--------------------------------------------------------------------------| 
A--------------------------------------------------------------------------| 
E--------------------------------------------------------------------------| 
 
E-------------------------------------------------------12-14/12/14-12/14~-| 
B----6-7--9---6-7--9--12~--6-7--9--12-12/14~~---9-12-14--------------------| 
G--------------------------------------------------------------------------| 
D--------------------------------------------------------------------------| 
A--------------------------------------------------------------------------| 
E--------------------------------------------------------------------------| 
 
E---14-12------------------------------------------------------------------| 
B----------14-12~--12~----12~----------------------------------------------| 
G----------------13~---13~------11/13--10~---------------------------------| 
D--------------------------------------------------------------------------| 
A--------------------------------------------------------------------------| 
E--------------------------------------------------------------------------| 
 
pre Chorus sorta thing:I think is a variation on lead#1, so mess around with that. 
 
 
Sitar solo part:this is what the strings play.  unless you have a sitar, you'll never be  
to duplicate that sitar solo. Sorry,it bums me out too:( 
 
E--------------------------------------------------------------------------| 
B--6-7--9--12~-----11/12/11--6--9/11/9--4--9/11/9--7-7/9-6-6~--------------| 
G--------------------------------------------------------------------------| 
D--------------------------------------------------------------------------| 
A--------------------------------------------------------------------------| 
E--------------------------------------------------------------------------| 
 
E--------------------------------------------------------------------------| 
B--6-7--9--12~-----11/12/11--6--9/11/9--4--9/11/9--7-7/9-6-6~--------------| 
G--------------------------------------------------------------------------| 
D--------------------------------------------------------------------------| 
A--------------------------------------------------------------------------| 
E--------------------------------------------------------------------------| 
 
E------------------------------------------------------------12/14/12~-----| 
B----6-7--9-6~---6-7---11-9~---6-7--9--12-14/12/14---9-12-14---------------| 
G--------------------------------------------------------------------------| 
D--------------------------------------------------------------------------| 
A--------------------------------------------------------------------------| 
E--------------------------------------------------------------------------| 
 
E--14-12----------------------14-12----------------------------------------| 
B--------14-12--9-7-9--12--9~-------14-12--9/12--9-7--9--12/9--7--6~~------| 
G--------------------------------------------------------------------------| 
D--------------------------------------------------------------------------| 
A--------------------------------------------------------------------------| 
E--------------------------------------------------------------------------| 
 
E--------------------------------------------------------------------------| 
B---6/7/6//////2--6/7/6///////////2--6/7/6~///////////2~~~0~~~~0/2-2~~~~---| 
G--------------------------------------------------------------------------| 
D--------------------------------------------------------------------------| 
A--------------------------------------------------------------------------| 
E--------------------------------------------------------------------------| 
 
 
Riff1 
 
 
Repeat the Verse, and pre-Chorus 
 
last line: 
 
 
E--------------------------------------------------------------------------| 
B---12-11--7--11-9--6---9-7-6-4~~~~~~---2~~~--0~~~~/2~~~-------------------| 
G--------------------------------------------------------------------------| 
D--------------------------------------------------------------------------| 
A--------------------------------------------------------------------------| 
E--------------------------------------------------------------------------| 
 
 

	  

Search Paypal
auto scroll beats size up size down change color hide chords drawings
tab show chords e-chords YouTube Clip e-chords hide all tabs e-chords go to top tab