The Beatles

Cry For A Shadow

The Beatles

tabs Beginner beginner

by  ADOLFOGOMES

save to print version add songbook text version e-mail correct tuner
chordsukulelecavacokeyboardtabbassdrumsharmonicaflute Guitar Pro
close

there isn't a video lesson for this song

chords

Cry For A Shadow

	  		Gravado em 22 jun 1961, a única conhecida feita por Harrison / Lennon, a primeira  
composição Beatles a ser gravada profissionalmente e a primeiro a aparecer no  
registro (em Tony Sheridan's 1962 Alemão álbum "My Bonnie" onde estavam o apoio  
banda) 

INTRO: G  F  G  F  G  F  G 
  
1ª parte: 

  C                                                      F                  G 
E|-------------------------------------------------------------------------------| 
B|15/---15/-15/-15/-15/r-13----15/---15/-15/-15/-15/r-13-----------13--13--13s15-| 
G|-------------------------------------------------------14----14--14--14--14s16-| 
D|-------------------------------------------------------------------------------| 
A|-------------------------------------------------------------------------------| 
E|-------------------------------------------------------------------------------| 



         C							             
E|--------17---------------------------------------------------------------------| 
B|-15s17-----17-17---------15/---15/-15/-15/-15/r-13----15/---15/-15/-15/-15/r-13| 
G|-15s17--------17-17-17---------------------------------------------------------| 
D|-------------------------------------------------------------------------------| 
A|-------------------------------------------------------------------------------| 
E|-------------------------------------------------------------------------------| 


   F                      G                          C         E7 
E|-------------------------------17----------------------------12--12--12--12--12--| 
B|----------13--13--13s15-15s17-----17-17---------17--17--15-----12--12--12--12--12| 
G|-14---14--14--14--14s16-15s17--------17-17-17---17--17--15-----------------------| 
D|---------------------------------------------------------------------------------| 
A|---------------------------------------------------------------------------------| 
E|---------------------------------------------------------------------------------| 

Meio: 
                	       					 
   E7                     Am                      D7 
E|12--12--12--12--12-------12--12--12--12--12-----15-12--------------------------| 
B|--12--12--12--12--12-------15--15--15--15--15----------15-12-15-----12---------| 
G|----------------------------------------------------------------14/----14-12---| 
D|-----------------------------------------------------------------------------14| 
A|-------------------------------------------------------------------------------| 
E|-------------------------------------------------------------------------------| 


   D7					                G 

E|--------------------------------------------15-17/-17/-17/-17/r--15------------| 
B|-----------------------------13-15-17/-17/r------------------------------------| 
G|----------10----10-12--12s14---------------------------------------------------| 
D|----10-12----12----------------------------------------------------------------| 
A|-12----------------------------------------------------------------------------| 
E|-------------------------------------------------------------------------------| 

Final: 
  C                                                      F                  G 
E|-------------------------------------------------------------------------------| 
B|15/---15/-15/-15/-15/r-13----15/---15/-15/-15/-15/r-13-----------13--13--13s15-| 
G|-------------------------------------------------------14----14--14--14--14s16-| 
D|-------------------------------------------------------------------------------| 
A|-------------------------------------------------------------------------------| 
E|-------------------------------------------------------------------------------| 

                          C 
E|-----------------------7s8-------------------------8--|| 
B|---------------------------7s8--------------------8---|| 
G|-------------------------------8s9---------------9----|| 
D|-----------------------------------9s10-s10-----10----|| 
A|-----------------------------------------------10-----|| 
E|----------------------------------------------8-------|| 

Feita por: Harrison e Lennon 
		  

Full key step upFull key step up
Half key step upHalf key step up
Half key step downHalf key step down
Full key step downFull key step down
hide glossary

See also:

tabs Extreme - More Than Words tabs The Shadows - Apache tabs Queen - Bohemian Rhapsody tabs The Rolling Stones - Angie tabs Deep Purple - Smoke On The Water tabs Eric Clapton - Wonderful Tonight
e-chords

Other versions:

tabs The Beatles - Cry For A Shadow
auto scroll beats size up size down change color hide chords drawings
tab show chords e-chords YouTube Clip e-chords hide all tabs e-chords go to top tab

share