The Beatles

home > The Beatles

Ringos Theme Tab

The Beatles

Difficulty: IntermediateIntermediate

by victborges

tuner correct add songbook print version text version save to e-mail
chordsukulelecavacokeyboardtabbassdrumsharmonicsflute Guitar Pro
chords

Ringos Theme

  		E |---------------------------------------------------------------------------| 
B |---------------------------------------------------------------------------| 
G |---------------------------------------------------------------------------| 
D |---------------------------------------------------------------------------| 
A |---------------------------------------------------------------------------| 
E |-6----6-------3-----------3-----6-7---6---6-------------3------6--7----6--6| 

E |---------------------------------------------------------------------------| 
B |---------------------------------------------------------------------------| 
G |--------------------------------------------------------------10-9-7-9-----| 
D |---------------------------------------------------------------------------| 
A |-3-h6----------------------------------------------------------------------| 
E |--------6----3-----1---------1-1-----6-3-----1---3-3--6-3--1---------------| 
	  

Search Paypal
auto scroll beats size up size down change color hide chords drawings
tab show chords e-chords YouTube Clip e-chords hide all tabs e-chords go to top tab