The Beatles

home > The Beatles

Birthday Tab

The Beatles

Difficulty: BeginnerBeginner

by redsoxnation

tuner correct add songbook print version text version save to e-mail
chordsukulelecavacokeyboardtabbassdrumsharmonicsflute Guitar Pro
chords

Birthday

Year: 1968 - Album: The Beatles (The White Album)

(Lennon / Mc Cartney)

  		E|----------------| 
B|----------------| 
G|----------------|  
D|---------2-3----| then you play the chords |G|C|G|  X2 all of it 
A|-----2-5------5-| 
E|-3-3------------| 
 
 
E|------------------| 
B|------------------| 
G|------------------| then the chords |C|F|C| and you go back once to the G part 
D|----------7-8-----|  
A|-----7-10------10-| 
E|-8-8--------------| 
 
and after the G part to here 
 
E|---------------------| 
B|---------------------| 
G|---------------------|then the chords |D|G|D| 
D|------------9-10-----| 
A|-------9-12-------12-| 
E|-10-10---------------| 
 
and after this back one more time to the G part 

	  

Full key step upFull key step up
Half key step upHalf key step up
Half key step downHalf key step down
Full key step downFull key step down
Search Paypal
auto scroll beats size up size down change color hide chords drawings
tab show chords e-chords YouTube Clip e-chords hide all tabs e-chords go to top tab