The Beatles

home > The Beatles

It's Only Love Bass Tab

The Beatles

Difficulty: nolevelnolevel

by Adolfogomes

tuner correct add songbook print version text version save to e-mail
chordsukulelecavacokeyboardtabbassdrumsharmonicsflute Guitar Pro
chords

It's Only Love

Year: 1996 - Album: Anthology 2

  		It's Only Love 
The Beatles 


Intro: 
G|------- ------- ------- -------|------- ------- ------- -------| 
D|-------------------------------|-------------------------------| 
A|-------------------------------|-------------------------------| 
E|-------------------------------|-------------------------------| 



G|------- ------- ------- -------|------- ------- ------- -------| 
D|-------------------------------|-------------------------------| 
A|-------------------------------|-------------------------------| 
E|-------------------------------|-------------------------------| 


Verse: 
G|------- ------- ------- -------|------- ------- ------- -------| 
D|-------------------------------|-------------------------------| 
A|3-----------3---2-------2------|1-----------1------------------| 
E|-------------------------------|----------------1-------1------| 
  I       get     high    when    I       see     you     go 


G|------- ------- ------- -------|------- ------- ------- -------| 
D|-------------------------------|-------------------------------| 
A|----------------5-------5------|-------------------------------| 
E|3-----------3------------------|3---3-------3---3-------3------| 
  by,                                     my, oh, my! 


G|------- ------- ------- -------|------- ------- ------- -------| 
D|-------------------------------|-------------------------------| 
A|3-----------3---2-------2------|1-----------1------------------| 
E|-------------------------------|----------------1-------1------| 
  When    you     sigh,   my,     my      in  -   side    just 


G|------- ------- ------- -------|------- ------- ------- -------| 
D|-------------------------------|-------------------------------| 
A|----------------5-------5------|-------------------------------| 
E|3-----------3------------------|3-----------3---3-------3------| 
  flies                                   butterflies 


G|------- ------- ------- -------|------- ------- ------- -------| 
D|-------------------------------|-------------------------------| 
A|----------------3--------------|----------------5--------------| 
E|1-----------1-----------1------|3-----------3---------------3--| 
  Why         am  I       so      shy             when I'm    be- 


G|------- ------- ------- -------|------- ------- ------- -------| 
D|-------------------------------|-------------------------------| 
A|3-----------3-------3-------2--|-------------------------------| 
E|----------------3--------------|5-----------5---0-----------5--| 
  side            you?                            It's on  -  ly 

Refrain: 
G|------- ------- ------- -------|------- ------- ------- -------| 
D|-------------------------------|-------------------------------| 
A|1-------1---------------1---0--|----------------5-------0---2--| 
E|----------------1--------------|3-----------3-------3----------| 
  love,       and that is     all,                why should  feel 
                                                          I 

G|------- ------- ------- -------|------- ------- ------- -------| 
D|-------------------------------|-------------------------------| 
A|3-------3-------3---3---3---2--|-------------------------------| 
E|------------3------------------|5-------5---5---0-------5------| 
              the way I       do?                 It's on  -  ly 


G|------- ------- ------- -------|------- ------- ------- -------| 
D|-------------------------------|-------------------------------| 
A|1-------1---------------1---0--|----------------5---5----------| 
E|----------------1--------------|3-----------3-----------3------| 
  love,       and that is     all,                but it's    so 


G|------- ------- ------- -------|------- ------- ------- -------| 
D|-------------------------------|-------------------------------| 
A|----------------3---3----------|----------------5-------0---2--| 
E|1-----------1-----------1------|3-------3-----------3----------| 
  hard,                   loving  you! 

Verse: 
G|------- ------- ------- -------|------- ------- ------- -------| 
D|-------------------------------|-------------------------------| 
A|3-----------3---2-------2------|1-------1----------------------| 
E|-------------------------------|----------------1-------1------| 
  Is      it      right   that    you     and     I       should 


G|------- ------- ------- -------|------- ------- ------- -------| 
D|-------------------------------|-------------------------------| 
A|----------------5-------5------|-------------------------------| 
E|3-----------3------------------|3-----------3---3-------3------| 
  fight                                   every   night? 


G|------- ------- ------- -------|------- ------- ------- -------| 
D|-------------------------------|-------------------------------| 
A|3-----------3---2-------2------|1-----------1------------------| 
E|-------------------------------|----------------1-------1------| 
  Just    the     sight   of      you     makes   night - time 


G|------- ------- ------- -------|------- ------- ------- -------| 
D|-------------------------------|-------------------------------| 
A|----------------5-------5------|-------------------------------| 
E|3-----------3------------------|3-----------3---3-------3------| 
  bright,                                 very bright 


G|------- ------- ------- -------|------- ------- ------- -------| 
D|-------------------------------|-------------------------------| 
A|----------------3--------------|----------------5-------0---2--| 
E|1-------1---------------1------|3-------3-----------3----------| 
  Ha  -   ven't   I       the right               to  make    it 


G|------- ------- ------- -------|------- ------- ------- -------| 
D|-------------------------------|-------------------------------| 
A|3-----------3-----------3---2--|-------------------------------| 
E|----------------3---3----------|5-------5-------0-------5------| 
  up,  girl?                                      It's on  -  ly 

Refrain: 
G|------- ------- ------- -------|------- ------- ------- -------| 
D|-------------------------------|-------------------------------| 
A|1-----------1-----------1---0--|----------------5-------0---2--| 
E|----------------1--------------|3-----------3-------3----------| 
  love,       and that is     all,                why should  feel 
                                                          I 

G|------- ------- ------- -------|------- ------- ------- -------| 
D|-------------------------------|-------------------------------| 
A|3-----------3-----------3---2--|-------------------------------| 
E|--------------------3----------|5-----------5---5-------5------| 
              the way I       do?                 It's on  -  ly 


G|------- ------- ------- -------|------- ------- ------- -------| 
D|-------------------------------|-------------------------------| 
A|1-----------1---1-------1---0--|-------------------------------| 
E|-------------------------------|3-----------3-----------3------| 
  love,       and that is     all,                but it's    so 


G|------- ------- ------- -------|------- ------- ------- -------| 
D|-------------------------------|-------------------------------| 
A|------------3------------------|----------------5-------0---3--| 
E|1-----------------------1------|3-------3-----------3----------| 
  hard,                   loving  you!                Yes, it's so 

Outro: 
G|------- ------- ------- -------|------- ------- ------- -------| 
D|-------------------------------|-------------------------------| 
A|------------------------3------|------------------------5------| 
E|1-----------1---1--------------|3---3-------3---3--------------| 
      hard                loving  you,                    loving 


G|------- ------- ------- -------|------- ------- ------- -------| 
D|-------------------------------|-------------------------------| 
A|3---------------3--------------|-------------------------------| 
E|----3-------3-----------3------|5-----------5---5-------3------| 
  you! 


G|------- ------- ------- -------|------- ------- ------- -------| 
D|-------------------------------|-------------------------------| 
A|3---------------3---3---2------|-------------------------------| 
E|------------3------------------|5-----------3---5-------3---5--| 



G|------- ------- ------- -------|------- ------- ------- -------| 
D|-------------------------------|-------------------------------| 
A|3---------------3-------2------|-------------------------------| 
E|------------3------------------|5-----------3---5---5---3------| 



G|------- ------- ------- -------|------- ------- ------- -------| 
D|-------------------------------|-------------------------------| 
A|3------------------------------|-------------------------------| 
E|-------------------------------|-------------------------------| 

Escrita por: John Lennon e Paul McCartney 
	  

Search Paypal
auto scroll beats size up size down change color hide chords drawings
tab show chords e-chords YouTube Clip e-chords hide all tabs e-chords go to top tab