The Beatles

home > The Beatles

Anna (Go To Him) Bass Tab

The Beatles

Difficulty: BeginnerBeginner

by gilson%5Fita%5Fse

tuner correct add songbook print version text version save to e-mail
chordsukulelecavacokeyboardtabbassdrumsharmonicsflute Guitar Pro
chords

Anna (Go To Him)

  		for i have got 
|----------------| 
|----------------| 
|----------------| 
|----------------| 
 
A 
 
                     another                           another 
                     another                           another 
|----------------|----------------|----------------|----------------| 
|*---------------|----------------|----------------|----------------| 
|*--------7---6--|--5---5------5--|--5---5------5--|--5---5------5--| 
|--5---5---------|---------5------|---------5------|---------5------| 
 
B % 
   you're making...     say that...       nobody...       you 
   she's sweeter...     all the...        I've met...     few 
     I don't wanna      say that...       unhappy...      you 
|--------------------|----------------|----------------|---------------------| 
|--------------------|----------------|----------------|---------------------| 
|---------7----------|---------5------|---------7------|--5---5------5--(7)--| 
|--5---5------5------|--3---3------3--|--5---5------5--|---------5-----------| 
 
     but as...          well I've...       somebody...     new 
     nobody...          the world...       do what...      do 
     but as...          well I've...       somebody...     new 
|------------------|------------------|-----------------|----------------| 
|------------------|------------------|-----------------|----------------| 
|---------7--------|---------5--------|---------7-------|--5---5------3--| 
|--5---5------5----|--3---3------3----|--5---5------5---|---------5------| 
 
     I ain't..        I don't        take what...     want for... 
     and so..         you this       time you'd...         for I.. 
     I ain't..        and I..        take what...     want for... 
|----------------|----------------|----------------|------------------| 
|----------------|----------------|----------------|-----------------*| 
|--5---5------3--|--5---5------3--|--5---5------5--|--7--------------*| 
|----------5-----|----------5-----|---------5------|------------------| 
 
C 
                     another..                              another..             TO CODA 
|----------------|----------------|---------------------|------------------------| 
|----------------|----------------|---------------------|------------------------| 
|---------7---6--|--5---5------5--|---------7------(6)--|--5---5-----(-----5--)--| 
|--5---5---------|---------5------|--5---5------5-------|---------5--(--5-----)--| 
 
D 
       who will..   love me...                                 through thick.. 
|----------------|---------------|--------------------------|------------------| 
|----------------|---------------|--------------------------|------------------| 
|--3---3------3--|--------5------|--3-----3-----(-----3--)--|-----------5------| 
|---------3------|--3---------3--|-----------3--(--3-----)--|--3-----3------3--| 
 
   thin                          be my..     
|-----------------------|------------------|---------------|-----------| 
|-----------------------|------------------|---------------|-----------| 
|--3--------(-----3--)--|--7-----7------7--|--------7------|--7-----7--| 
|--------3--(--3-----)--|-----------7------|--5---------5--|-----------| 
 
CODA 
                        another... 
|------------------|------------------|--------|--------|-----------| 
|------------------|------------------|--------|--------|-----------| 
|-----------7------|--5-----5---------|--------|--------|-----------| 
|--5-----5------5--|-----------5---5--|--5-----|--5-----|--5-----5--| 

	  

Full key step upFull key step up
Half key step upHalf key step up
Half key step downHalf key step down
Full key step downFull key step down
Search Paypal
auto scroll beats size up size down change color hide chords drawings
tab show chords e-chords YouTube Clip e-chords hide all tabs e-chords go to top tab