The Beatles

home > The Beatles

Cry Baby Cry Bass Tab

The Beatles

Difficulty: BeginnerBeginner

by gilson%5Fita%5Fse

tuner correct add songbook print version text version save to e-mail
chordsukulelecavacokeyboardtabbassdrumsharmonicsflute Guitar Pro
chords

Cry Baby Cry

(Lennon / Mc Cartney)

  		   cry     make     old    the    
|-------|--------|------|-----| 
|-------|--------|------|-----| 
|-------|--------|------|-----| 
|-------|--------|------|-----| 
 
B 
   king of...                                  cooking... 
   king was...                                 for a friend... 
   duchess...                                  and arriving... 
   twelve o'clock...                           for a... 
|-------------------------------------|-------------------------------------| 
|*------------5------------------5----|------------5------------------5-----| 
|*--7---7--------7-----6---6-------6--|--5---5--------5-----4---4--------4--| 
|-------------------------------------|-------------------------------------| 
 
                                    the      queen was... 
                                    the      queen was... 
                                    the      duke was... 
                                    with     voices... 
|-----------------------------------------|-------------------------------------| 
|-----------------------------------------|------------5------------------5-----| 
|--3-----1--------------2-----2---5-------|--7---7--------7-----6---6--------6--| 
|--------------3--3--5--------------------|-------------------------------------| 
 
          for... 
          for... 
          at... 
          by... 
|---------4-----------------4-----------|--------------------------| 
|------------5-----------------5--------|--------------------------| 
|--5---5--------5-----4-----------4--4--|--3-----3--1--1-----1-----| 
|---------------------------------------|-----------------------3--| 
 
C 
   cry baby cry                      make your... 
|---------------------------------|---------------------------------------| 
|------------------------------2--|--3---2---3---4-----5---2--------------| 
|----------2-----------2---3------|------------------------------5--2-----| 
|--3---5-------3---5--------------|------------------------------------3--| 
 
                                 1,2,3____________________________  
   old enough...                   cry baby cry 
|------------4-----2---2--------|---------------------------------| 
|--2---2---------------------5--|--3---2---3---4---5--2----------*| 
|-------------------------------|------------------------5--2----*| 
|-------------------------------|------------------------------3--| 
 
4______________________________________    
   cry baby cry cry cry cry               
|--------------------------------------|-------------|-----------------------------------| 
|--3---3--2--3--4---5--2---------------|-------------|--3---2---3---4---5---2------------| 
|-------------------------5-----2------|-------------|--------------------------5--2-----| 
|-----------------------------------3--|--5---5---5--|--------------------------------3--| 
 
   old enough...                     cry baby cry 
|----------4-------2---2----------|----------------------------------------| 
|--2---2-------2-----------5---5--|--3---2-----3-----4--5--2---------------| 
|---------------------------------|---------------------------5-----2------| 
|---------------------------------|-------------------------------------3--| 
 
                     make your...                         old enough... 
|-----------------|------------------------------------|----------4-------2---2----------| 
|-----------------|--3---3---2---3--5--2---------------|--2---2-------2-----------5---5--| 
|----------2---3--|-----------------------5-----2------|---------------------------------| 
|--5---5----------|---------------------------------3--|---------------------------------| 
 
   cry baby cry 
|-----------------------| 
|--3---2---3---5-----2--| 
|-----------------------| 
|-----------------------| 

	  

Full key step upFull key step up
Half key step upHalf key step up
Half key step downHalf key step down
Full key step downFull key step down
Search Paypal
auto scroll beats size up size down change color hide chords drawings
tab show chords e-chords YouTube Clip e-chords hide all tabs e-chords go to top tab