The Beatles

home > The Beatles

I Want To Tell You Bass Tab

The Beatles

Difficulty: nolevelnolevel

by Adolfogomes

tuner correct add songbook print version text version save to e-mail
chordsukulelecavacokeyboardtabbassdrumsharmonicsflute Guitar Pro
chords

I Want To Tell You

Year: 1966 - Album: Revolver [UK]

  		I Want To Tell You 
The Beatles 

Intro: 
G|------ ------ ------ ------|------ ------ ------ ------| 
D|---------------------------|---------------------------| 
A|---------------------------|---------------------------| 
E|---------------------------|---------------------------| 



G|------ ------ ------ ------|------ ------ ------ ------| 
D|---------------------------|---------------------------| 
A|---------------------------|---------------------------| 
E|---------------------------|---------------------------| 
  


G|------ ------ ------ ------|------ ------ ------ ------| 
D|---------------------------|---------------------------| 
A|---------------------------|---------------------------| 
E|---------------------------|---------------------------| 
  


G|------ ------ ------ ------|------ ------ ------ ------| 
D|---------------------------|--------------7-7-7--7-7-7-| 
A|---------------------------|---------------------------| 
E|---------------------------|---------------------------| 


Verse: 
G|------ ------ ------ ------|------ ------ ------ ------| 
D|7------7------7------7-----|7------7------7------7-----| 
A|-----------7-------------7-|-----------7-------------7-| 
E|---------------------------|---------------------------| 
             I  want to    tell          you, 


G|------ ------ ------ ------|------ ------ ------ ------| 
D|7------7------7------7-----|7------7------9------9-----| 
A|-----------7-------------7-|-----------7-------------9-| 
E|---------------------------|---------------------------| 
             my head is    filled with   things to     say 


G|------ ------ ------ ------|------ ------ ------ ------| 
D|9------9------9------9-----|---------------------------| 
A|-----------9-------------9-|7------7------7------7-----| 
E|---------------------------|-----------7-------------7-| 
                                            When you're here, 


G|------ ------ ------ ------|------ ------ ------ ------| 
D|---------------------------|---------------------------| 
A|7------7------7------7-----|7------7------7------7-----| 
E|-----------7-------------7-|-----------7-------------7-| 
                                            all those  words, 


G|------ ------ ------ ------|------ ------ ------ ------| 
D|---------------------------|7---7----------------------| 
A|7------7------7------7-----|---------------------------| 
E|-----------7-------------7-|---------------------------| 
      they   seem   to        slip a  -  way 


G|------ ------ ------ ------| 
D|---------------------------| 
A|---------------------------| 
E|---------------------------| 


Verse: 
G|------ ------ ------ ------|------ ------ ------ ------| 
D|7------7------7------7-----|7------7------7------7-----| 
A|-----------7-------------7-|-----------7-------------7-| 
E|---------------------------|---------------------------| 
             When 
                I   get    near          you, 

G|------ ------ ------ ------|------ ------ ------ ------| 
D|7------7------7------7-----|7------7------9------9-----| 
A|-----------7-------------7-|-------------------------9-| 
E|---------------------------|---------------------------| 
            the games be - gin    to     drag   me     down 


G|------ ------ ------ ------|------ ------ ------ ------| 
D|9------9------9------9-----|---------------------------| 
A|-----------9-------------9-|7------7------7------7-----| 
E|---------------------------|-----------7-------------7-| 
                                            It's all   right, 


G|------ ------ ------ ------|------ ------ ------ ------| 
D|---------------------------|---------------------------| 
A|7------7------7------7-----|7------7------7------7-----| 
E|-----------7-------------7-|-----------7-------------7-| 
                                            I'll make  you 


G|------ ------ ------ ------|------ ------ ------ ------| 
D|---------------------------|7--------------------------| 
A|7------7------7------7-----|---------------------------| 
E|-----------7-------------7-|---------------------------| 
      may  - be     next      time a  -  round 


G|------ ------ ------ ------| 
D|---------------------------| 
A|---------------------------| 
E|---------------------------| 


Bridge: 
G|------ ------ ------ ------|------ ------ ------ ------| 
D|9------9------9------9---8-|9------9------9------9---8-| 
A|---------------------------|---------------------------| 
E|---------------------------|---------------------------| 
             But if I      seem      to  act    un  -  kind, 


G|------ ------ ------ ------|------ ------ ------ ------| 
D|7--------------------7---7-|9------9------9------9---8-| 
A|-------9------7--------7---|---------------------------| 
E|---------------------------|---------------------------| 
             it's   on  -  ly me, it's   not    my     mind, 


G|------ ------ ------ ------|------ ------ ------ ------| 
D|9------9------9------9---8-|9------9------9------9-----| 
A|---------------------------|---------------------------| 
E|---------------------------|---------------------------| 
                                     That is    con- 


G|------ ------ ------ ------|------ ------ ------ ------| 
D|7--------------------------|---------------------------| 
A|---------------------------|---------------------------| 
E|---------------------------|---------------------------| 
  fu- sing   things 

Verse: 
G|------ ------ ------ ------|------ ------ ------ ------| 
D|7------7------7------7-----|7------7------7------7-----| 
A|-----------7-------------7-|-----------7-------------7-| 
E|---------------------------|---------------------------| 
             I  want to    tell          you, 


G|------ ------ ------ ------|------ ------ ------ ------| 
D|7------7------7------7-----|7------7------9------9-----| 
A|-----------7-------------7-|-----------7-------------9-| 
E|---------------------------|---------------------------| 
             I  feel hung  up,    and I  don't  know   why 


G|------ ------ ------ ------|------ ------ ------ ------| 
D|9------9------9------9-----|---------------------------| 
A|-----------9-----------9-8-|7------7------7------7-----| 
E|---------------------------|-----------7-------------7-| 
                                            I   don't  mind, 


G|------ ------ ------ ------|------ ------ ------ ------| 
D|---------------------------|---------------------------| 
A|7------7------7------7-----|7------7------7------7-----| 
E|-----------7-------------7-|-----------7-------------7-| 
                                            I   could  wait 


G|------ ------ ------ ------|------ ------ ------ ------| 
D|---------------------------|7--------------------------| 
A|7------7------7------7-----|---------------------------| 
E|-----------7-------------7-|---------------------------| 
      for -  e  -   ver       I've got   time 


G|------ ------ ------ ------| 
D|---------------------------| 
A|---------------------------| 
E|---------------------------| 


Bridge: 
G|------ ------ ------ ------|------ ------ ------ ------| 
D|9------9------9------9---8-|9------9------9------9---8-| 
A|---------------------------|---------------------------| 
E|---------------------------|---------------------------| 
             Some - times  I  wish I     knew   you    well, 


G|------ ------ ------ ------|------ ------ ------ ------| 
D|7--------------------7---7-|9------9------9------9---8-| 
A|-------9------7--------7---|---------------------------| 
E|---------------------------|---------------------------| 
                  then I   could  speak my  mind and   tell 


G|------ ------ ------ ------|------ ------ ------ ------| 
D|9------9------9------9---8-|9------9------9------9---8-| 
A|---------------------------|---------------------------| 
E|---------------------------|---------------------------| 
      you,                           May- be    you'd  un- 


G|------ ------ ------ ------|------ ------ ------ ------| 
D|7--------------------------|---------------------------| 
A|---------------------------|---------------------------| 
E|---------------------------|---------------------------| 
      der -  stand 

Verse: 
G|------ ------ ------ ------|------ ------ ------ ------| 
D|7------7------7------7-----|7------7------7------7-----| 
A|-----------7-------------7-|-----------7-------------7-| 
E|---------------------------|---------------------------| 
             I  want to    tell          you, 


G|------ ------ ------ ------|------ ------ ------ ------| 
D|7------7------7------7-----|7------7------9------9-----| 
A|-----------7-------------7-|-----------7-------------9-| 
E|---------------------------|---------------------------| 
             I  feel hung  up,    and I  don't  know   why 


G|------ ------ ------ ------|------ ------ ------ ------| 
D|9------9------9------9-----|---------------------------| 
A|-----------9-----------9-8-|7------7------7------7-----| 
E|---------------------------|-----------7-------------7-| 
                                            I   don't  mind, 


G|------ ------ ------ ------|------ ------ ------ ------| 
D|---------------------------|---------------------------| 
A|7------7------7------7-----|7------7------7------7-----| 
E|-----------7-------------7-|-----------7-------------7-| 
                                            I   could  wait 


G|------ ------ ------ ------|------ ------ ------ ------| 
D|---------------------------|7--------------------------| 
A|7------7------7------7-----|---------------------------| 
E|-----------7-------------7-|---------------------------| 
      for -  e  -   ver       I've got   time 


G|------ ------ 9-9-9- 9-----| 
D|---------------------------| 
A|---------------------------| 
E|---------------------------| 


Outro: 
G|------ ------ ------ ------|------ ------ 9-9-9- 9-----| 
D|7--------------------------|---------------------------| 
A|---------------------------|---------------------------| 
E|---------------------------|---------------------------| 
  


G|------ ------ ------ ------|------ ------ ------ ------| 
D|7----------7---------------|--7-7--7------7---7------7-| 
A|---------------------------|---------------------------| 
E|---------------------------|---------------------------| 

Escrita por: George Harrison 
	  

Search Paypal
auto scroll beats size up size down change color hide chords drawings
tab show chords e-chords YouTube Clip e-chords hide all tabs e-chords go to top tab