The Beatles

home > The Beatles

Back In The USSR Tab

The Beatles

Difficulty: EasyEasy

by Pete%5FTownshend

tuner correct add songbook print version text version save to e-mail
chordsukulelecavacokeyboardtabbassdrumsharmonicsflute Guitar Pro
chords

Back In The USSR

Year: 1968 - Album: The Beatles (The White Album)

(Lennon / Mc Cartney)

  		    Intro:                               Riff_1:                                                                             Riff_2: 
e|------------------|---3--------6---------8----------------|--15-15-...- 
B|-------------3--3-|-----6-5------9-8-------11-10----------|------------ 
G|---(3)b4r3b-------|---------------------------------------|------------ 
D|------------------|-5-------8b-------10b---------13/14-10-|------------ 
 
    Solo: 
e|----------------------------------------------------------------------- 
B|--12b13-12b13-12b13-12b13-(12)b13-(12)b13-12b13-11-11-13/15-15-8-8-8--- 
G|----------------------------------------------------------------------- 
 
e|----------------------------------------------------------------------- 
B|-----12b13r12-12b13r12-12b13r12-12b13r12-12b13r12-11-11-13/15-15-8-8-8- 
G|--12------------------------------------------------------------------- 
 
    End:   
e|---3--------3--------3--------3--------3--------3------------------ 
B|-----6-5------6-5------6-5------6-5------6-5------6-5-------------- 
G|---------3b-------3b-------3b-------3b-------3b-------3b----------- 
D|-5--------------------------------------------------------5-------- 
 
   Voices: 
      Back in the U.S., back in the U.S., back in the U.S.S.R. 
e|------------------------------------------------------------------- 
B|------------------------------------------------------------------- 
G|--5------5--5----5-----5--5---5------5-5-5-7-4--------------------- 
D|--5---5--5--5----5--5--5--5---5---5--5-5-5-5-5--------------------- 
A|------5-------------5-------------5-------------------------------- 
 

	  

Search Paypal
auto scroll beats size up size down change color hide chords drawings
tab show chords e-chords YouTube Clip e-chords hide all tabs e-chords go to top tab