The Beatles

home > The Beatles

A Hard Day's Night Tab

The Beatles

Difficulty: nolevelnolevel

by Teusalves

tuner correct add songbook print version text version save to e-mail
chordsukulelecavacokeyboardtabbassdrumsharmonicsflute Guitar Pro
chords

A Hard Day's Night

Year: 1964 - Album: A Hard Day´s Night

(John Lennon/ Paul McCartney)

  		Solo: (2x)  Use capo at fret 1  Use harmonic | End: (fade)  
      G                                      F6                              G  
e|----------------------1--1--1--1------|--3---1---3---1---3---1------  
B|---------------------3--3--3--3-1-----|-3-3-3-3-3-3-3-3-3-3-3-3-----  
G|-------3-5-3-5/7----5--5--5--5---3----|----5---5---5---5---5---5----  
D|-5---5----------------------------5-5-|-----------------------------  
A|--------------------------------------|-----------------------------
E|--------------------------------------|-----------------------------

Voices:    But when I get home to you I find the things that you do  
e|--------------------------------------------------------------------  
B|-------8---8--9-10--9--8--5-8--8--9--10----9--8--7------------------  
G|-------7---7--8--9--8--7--5-9--9-10--11---10--9--7------------------
D|--------------------------------------------------------------------
A|--------------------------------------------------------------------
E|--------------------------------------------------------------------
	  

Full key step upFull key step up
Half key step upHalf key step up
Half key step downHalf key step down
Full key step downFull key step down
Search Paypal
auto scroll beats size up size down change color hide chords drawings
tab show chords e-chords YouTube Clip e-chords hide all tabs e-chords go to top tab