The Beatles

home > The Beatles

In My Life Bass Tab

The Beatles

Difficulty: ExpertExpert

tuner correct add songbook print version text version save to e-mail
chords

In My Life

Year: 1965 - Album: Rubber Soul

	  

Very similar to the other tab, actully pretty much the same. But if you try to do this song with a regular bass and all those opens it sounds really..whiny and ringy on stage. Paul got away with it, but look what he played for this song. Anyway, I just tabbed it out to make it easier. Same notes, whatever.
-Andrea

Intro
G-----------------------------------------------------------
D----------0-2--2-2-2---------------------------------------
A---0--0-4--------------------------------------------------
E-----------------------------------------------------------

Verse
G---2------------------------------------------------------
D-----2-4-5------------------------------------------------
A-----------5-5--------------------------------------------
E---------------5-5----------------------------------------

G---2-----------2-2----------------------------------------
D-----2-4-5------------------------------------------------
A-----------5-5--------------------------------------------
E----------------------------------------------------------

Chorus
G-----------------------2-2-2-2-----------------------------
D---4----------5-5-5-5--------------------------------------
A------5--5-5-----------------------------------------------
E-----------------------------------------------------------

G--------------------------------2-2-2-2-2-2-2-2------------
D---4-------------------------------------------------------
A-------2--2-2---5-5-5-5-5-5-5-5----------------------------
E-----------------------------------------------------------

Into X2
Verse X1
Chours X1
Intro X1
Verse X1
Chorus X1
Verse X1
Intro X1
end on Intro

	  

there isn't a video lesson for this song

request
Search
auto scroll beats size up size down change color hide chords drawings
tab show chords e-chords YouTube Clip e-chords hide all tabs e-chords go to top tab