Coldplay

home > Coldplay

Yellow Bass Tab

Coldplay

Difficulty: BeginnerBeginner

tuner correct add songbook print version text version save to e-mail
chords

Yellow

Year: 2000 - Album: Buddha Renditions Of Lounge Coldplay

(Martin, Champion, Buckland , Berryman)

Key:  B More
Yellow Key F#F#
Yellow Key GG
Yellow Key G#G#
Yellow Key AA(one step down)
Yellow Key A#A#(half step down)
Yellow Key BB(original key)
Yellow Key CC(half step up)
Yellow Key C#C#(one step up)
Yellow Key DD
Yellow Key D#D#
Yellow Key EE
Yellow Key FF
  		

Band: 	
 


Intro
G|--------|--------|--------|--------|--------|--------|--------|---------|
D|--------|--------|--------|--------|--------|--------|--------|---------|
A|-2-2-2-2|-2-2-2-2|-2-2-2-2|-2-2-2-2|--------|--------|--------|---------|
E|--------|--------|--------|--------|-2-2-2-2|-2-2-2-2|-2-2-2-2|-2-2-2-2-|


G|--------|--------|--------|--------|--------|--------|--------|---------|
D|-2-2-2-2|-2-2-2-2|-2-2-2-2|-2-2-2-2|--------|--------|--------|---------|
A|--------|--------|--------|--------|-2-2-2-2|-2-2-2-2|-2-2-2-2|-2-2-2-2-|
E|--------|--------|--------|--------|--------|--------|--------|---------|


Verse
G|--------|--------|--------|--------|--------|--------|--------|---------|
D|--------|--------|--------|--------|--------|--------|--------|---------|
A|-2-2-2-2|-2-2-2-2|-2-2-2-2|-2-2-2-2|--------|--------|--------|---------|
E|--------|--------|--------|--------|-2-2-2-2|-2-2-2-2|-2-2-2-2|-2-2-2-2-|

G|--------|--------|--------|---------|
D|-2-2-2-2|-2-2-2-2|-2-2-2-2|-2-2-2-2-|
A|--------|--------|--------|---------|
E|--------|--------|--------|---------| x2


Intro once


Chorus
G|--------|-----11-|--------|---------|
D|--------|6--6----|--------|---------|
A|-7------|--------|-----7--|--9--9-9-|
E|--------|--------|--------|---------| x2


After chorus w/variation.
G|--------|-----11-|--------|---------|---------|
D|--------|6--6----|--------|---------|---------|
A|-7------|--------|-----7--|--9--9-9-|-7-------|
E|--------|--------|--------|---------|---------|


Intro
verse x1
Intro
Chorus x2 and after Chorus
Intro
Verse x2

End
G|---------|
D|---------|
A|-2-------|
E|---------|

	  

Search Paypal
auto scroll beats size up size down change color hide chords drawings
tab show chords e-chords YouTube Clip e-chords hide all tabs e-chords go to top tab