The Beatles

home > The Beatles

I Will Bass Tab

The Beatles

Difficulty: ExpertExpert

by Adolfogomes

tuner correct add songbook print version text version save to e-mail
chordsukulelecavacokeyboardtabbassdrumsharmonicsflute Guitar Pro
chords

I Will

(Lennon / Mc Cartney)

Key:  F More
I Will Key CC
I Will Key C#C#
I Will Key DD
I Will Key D#D#(one step down)
I Will Key EE(half step down)
I Will Key FF(original key)
I Will Key F#F#(half step up)
I Will Key GG(one step up)
I Will Key G#G#
I Will Key AA
I Will Key A#A#
I Will Key BB
  		I WILL 
THE BEATLES 

(SCAT BASS) 

VERSE 

G|---------------------------------|-0---------------5-------5-------| 
D|-3---------------0---------------|---------------------------------| 
A|---------------------------------|---------------------------------| 
E|---------------------------------|---------------------------------| 
  dum             dum               dum             dum     dum 

G|-----------------7---------------|-------------------------5-------| 
D|-3-------------------------------|-7---------------7---------------| 
A|---------------------------------|---------------------------------| 
E|---------------------------------|---------------------------------| 
  dum             dum               dum             dum     dum 

G|-3-------------------------------|-2---------------2-------2-------| 
D|-----------------5---------------|---------------------------------| 
A|---------------------------------|---------------------------------| 
E|---------------------------------|---------------------------------| 
  dum             dum               dum             dum     dum 

G|-3-------------------------------|-----------------7---------------| 
D|-----------------5---------------|-3-------------------------------| 
A|---------------------------------|---------------------------------| 
E|---------------------------------|---------------------------------| 
  dum             dum               dum             dum 

G|-----------------5-------5-------| 
D|-5-------------------------------| 
A|---------------------------------| 
E|---------------------------------| 
  dum             dum     dum 

VERSE 

G|-----------------7---------------|-0---------------5-------5-------| 
D|-3-------------------------------|---------------------------------| 
A|---------------------------------|---------------------------------| 
E|---------------------------------|---------------------------------| 
  dum             dum               dum             dum     dum 

G|-----------------7---------------|-------------------------5-------| 
D|-3-------------------------------|-7---------------7---------------| 
A|---------------------------------|---------------------------------| 
E|---------------------------------|---------------------------------| 
  dum             dum               dum             dum     dum 

G|-3-------------------------------|-2---------------2-------2-------| 
D|-----------------5---------------|---------------------------------| 
A|---------------------------------|---------------------------------| 
E|---------------------------------|---------------------------------| 
  dum             dum               dum             dum     dum 

G|-3-------------------------------|---------------------0---2-------| 
D|-----------------5---------------|-3---------------3-----------3---| 
A|---------------------------------|---------------------------------| 
E|---------------------------------|---------------------------------| 
  dum             dum               dum             dum dum dum dum 

BRIDGE 

G|-3---------------2---------------|-7-----------7-------5---3---2---| 
D|---------------------------------|---------------------------------| 
A|---------------------------------|---------------------------------| 
E|---------------------------------|---------------------------------| 
  dum             dum               dum         dum     dum dum dum 

G|-----------------5---------------|---------------------0---2-------| 
D|-5-------------------------------|-3---------------3-----------3---| 
A|---------------------------------|---------------------------------| 
E|---------------------------------|---------------------------------| 
  dum             dum               dum             dum dum dum dum 

G|-3---------------2---------------|-7-----------7-------5---3---2---| 
D|---------------------------------|---------------------------------| 
A|---------------------------------|---------------------------------| 
E|---------------------------------|---------------------------------| 
  dum             dum               dum         dum     dum dum dum 

G|---------------------------------|-5-------3-------2-------0-------| 
D|-5---------------5-------5-------|---------------------------------| 
A|---------------------------------|---------------------------------| 
E|---------------------------------|---------------------------------| 
  dum             dum     dum       dum     dum     dum     dum 

VERSE 

G|---------------------------------|-0---------------5-------5-------| 
D|-3---------------0---------------|---------------------------------| 
A|---------------------------------|---------------------------------| 
E|---------------------------------|---------------------------------| 
dum             dum               dum             dum     dum 

G|-----------------7---------------|-------------------------5-------| 
D|-3-------------------------------|-7---------------7---------------| 
A|---------------------------------|---------------------------------| 
E|---------------------------------|---------------------------------| 
dum             dum               dum             dum     dum 

G|-3-------------------------------|---------7-------10--------------| 
D|-----------------5---------------|-7-----------------------7-------| 
A|---------------------------------|---------------------------------| 
E|---------------------------------|---------------------------------| 
  dum             dum               dum     dum     dum     dum 

G|-3-------------------------------|---------7-------10--------------| 
D|-----------------5---------------|-7-------------------------------| 
A|---------------------------------|---------------------------------| 
E|---------------------------------|---------------------------------| 
  dum             dum               dum     dum     dum 

G|-3-------------------------------|---------9-------10------10------| 
D|-----------------5---------------|-7-------------------------------| 
A|---------------------------------|---------------------------------| 
E|---------------------------------|---------------------------------| 
  dum             dum               dum     dum     dum     dum 

G|-----------------5---------------|---------------------------------| 
D|-5-------------------------------|-3-------3-------3-------3-------| 
A|---------------------------------|---------------------------------| 
E|---------------------------------|---------------------------------| 
  dum             dum               dum     dum     dum     dum 

G|---------------------------------|---------------------------------| 
D|-3-------3-------3-------3-------|-3-------3-------3-------3-------| 
A|---------------------------------|---------------------------------| 
E|---------------------------------|---------------------------------| 
  dum     dum     dum     dum       dum     dum     dum     dum 

G|---------------------0---2-------|-3---------------2---------------| 
D|-3-------3-------3-----------3---|---------------------------------| 
A|---------------------------------|---------------------------------| 
E|---------------------------------|---------------------------------| 
  dum     dum     dum dum dum dum   dum             dum 

G|-7-----------7-------5---3---2---|-----------------5---------------| 
D|---------------------------------|-5-------------------------------| 
A|---------------------------------|---------------------------------| 
E|---------------------------------|---------------------------------| 
  dum         dum     dum dum dum   dum             dum 

G|---------------------------------| 
D|-3-------------------------------| 
A|---------------------------------| 
E|---------------------------------| 
  dum 

Escrita por: Paul McCartney 
	  

Search Paypal
auto scroll beats size up size down change color hide chords drawings
tab show chords e-chords YouTube Clip e-chords hide all tabs e-chords go to top tab