The Beatles

home > The Beatles

Taxman Tab

The Beatles

Difficulty: nolevelnolevel

by Fimow%2EY2J

tuner correct add songbook print version text version save to e-mail
chordsukulelecavacokeyboardtabbassdrumsharmonicsflute Guitar Pro
chords

Taxman

Year: 1966 - Album: Revolver [UK]

(Harrison)

Key:  D More
Taxman Key AA
Taxman Key A#A#
Taxman Key BB
Taxman Key CC(one step down)
Taxman Key C#C#(half step down)
Taxman Key DD(original key)
Taxman Key D#D#(half step up)
Taxman Key EE(one step up)
Taxman Key FF
Taxman Key F#F#
Taxman Key GG
Taxman Key G#G#
  		Riff principale / Main riff 
 
G|-----------7----------5-----| 
D|----------------5-7------7-|     x 12 
A|----5------------------------| 
E|------------------------------| 
       1      2      3      4 
 
 
Variazione / Variation "...cause I'm the taxman, yeah..." 
 
G|-----------5---------3-------| 
D|----------------3-5------ 5-|    x2 
A|----3-------------------------| 
E|-------------------------------| 
       1      2      3      4 
 
 

	  

Search Paypal
auto scroll beats size up size down change color hide chords drawings
tab show chords e-chords YouTube Clip e-chords hide all tabs e-chords go to top tab