The Beatles

home > The Beatles

When The Saints Go Marching In Tab

The Beatles

Difficulty: EasyEasy

by europeu

tuner correct add songbook print version text version save to e-mail
chordsukulelecavacokeyboardtabbassdrumsharmonicsflute Guitar Pro
chords

When The Saints Go Marching In

  		Tuning : E A D G B E 	Time Signature: 4/4 

  |       |       |       |          |       |       |       |          
|-----------------0-------1--------||3--------------------------------| 
|---------1------------------------|*--------------------1------------| 
|----------------------------------||---------------------------------| 
|----------------------------------||--------2---------------2--------| 
|----------------------------------|*3--------------------------------| 
|----------------------------------||----------------3----------------| 

  |       |       |       |          |       |       |       |          
|-3---------------0-------1--------|-3--------------------------------| 
|---------1------------------------|---------------------1------------| 
|----------------------------------|----------------------------------| 
|---------2---------------2--------|---------2---------------2--------| 
|-3---------------3----------------|-3--------------------------------| 
|----------------------------------|-----------------3----------------| 

  |       |       |       |          |       |       |       |          
|-3---------------0-------1--------|-3-----------0--------------------| 
|---------1------------------------|----------------------------------| 
|----------------------------------|----------------------------------| 
|---------2---------------2--------|---------2---------------2--------| 
|-3---------------3----------------|-3--------------------------------| 
|----------------------------------|-----------------3----------------| 

  |       |       |       |          |       |       |       |          
|-----------------0----------------|----------------------------------| 
|-1--------------------------------|-3-------------------0------------| 
|----------------------------------|----------------------------------| 
|---------2---------------2--------|---------0---------------0--------| 
|-3--------------------------------|-----------------2----------------| 
|-----------------3----------------|-3--------------------------------| 

  |       |       |       |          |       |       |       |          
|---------0-------0----------------|----------------------------------| 
|-------------------------3--------|-1-------------------1------------| 
|----------------------------------|----------------------------------| 
|---------0---------------0--------|---------2---------------2--------| 
|-----------------2----------------|-3--------------------------------| 
|-3--------------------------------|-----------------3----------------| 

  |       |       |       |          |       |       |       |          
|-0-----------3-----------3--------|-3-------1------------------------| 
|----------------------------------|----------------------------------| 
|----------------------------------|----------------------------------| 
|---------2---------------2--------|---------3---------------3--------| 
|-3--------------------------------|-----------------0----------------| 
|-----------------3----------------|-1--------------------------------| 

  |       |       |       |          |       |       |       |          
|-----------------0-------1--------|-3-----------0--------------------| 
|----------------------------------|----------------------------------| 
|----------------------------------|----------------------------------| 
|---------3---------------3--------|---------2---------------2--------| 
|----------------------------------|-3--------------------------------| 
|-1---------------1----------------|-----------------3----------------| 

  |       |       |       |        >1|       |       |       |          
|---------------------------------||----------------------------------| 
|-1-----------3-------------------||-1--------------------------------| 
|---------------------------------||---------------------0------------| 
|---------2---------------0-------||---------2---------------2--------| 
|-3-------------------------------||-3--------------------------------| 
|-----------------3---------------||-----------------3----------------| 

  |       |       |       |        >2|       |       |       |          
|-----------------0-------1-------||----------------------------------| 
|-1-------1-----------------------*|-1--------------------------------| 
|---------------------------------||---------------------0------------| 
|---------2---------------2-------||---------2---------------2--------| 
|-3---------------3---------------*|-3--------------------------------| 
|---------------------------------||-----------------3----------------| 

  |       |       |       |          
|----------------------------------| 
|-1--------------------------------| 
|----------------------------------| 
|----------------------------------| 
|-3--------------------------------| 
|----------------------------------| 

	  

Full key step upFull key step up
Half key step upHalf key step up
Half key step downHalf key step down
Full key step downFull key step down
Search Paypal
auto scroll beats size up size down change color hide chords drawings
tab show chords e-chords YouTube Clip e-chords hide all tabs e-chords go to top tab