The Beatles

home > The Beatles

Lucy In The Sky With Diamonds Tab

The Beatles

Difficulty: IntermediateIntermediate

by Pete%5FTownshend

tuner correct add songbook print version text version save to e-mail
chords

Lucy In The Sky With Diamonds

Year: 1967 - Album: Sgt. Pepper's Lonely Hearts Club Band

(John Lennon/ Paul McCartney)

  		
 

Intro: 

e|--------------12---------12------------12----------10p9-----| 
B|---------10--------------10------------10----------------10-| 
G|----9--------------12---------12--11------11--10------------| 
D|------------------------------------------------------------| 
A|----0-------------------------------------------------------| 
E|------------------------------------------------------------| 

Part A 1: 

e|---------------------------------------------------0-------------------| 
B|-2-2-2--2--------2--0-----2--0--0--2---------2--2-----3--2-----2--3--5-| 
G|-2------2--4--2--2-----2-----------2---4--2--2--------------3--2-------| 
D|-2------2--------0-----------------2---------2-----------------2-------| 
A|-0---------------------------------0---------------------------0-------| 
E|--------3--------0-----------1---------------3-----2--------1----------| 

e|-------------------------------------------0-----------------| 
B|---2--------2----0-----2--0---2---------------3--2-----------| 
G|---2--4--2--2-------2---------2----4--2-------------2--------| 
D|---2--------0-----------------2------------------------------| 
A|------------------------------0------------------------------| 
E|---3--------2----------1-------------------3--------2----1---| 

Part A 2: 

e|---------------------------------| 
B|--3--3--3--3--3--3--3---3--3---3-| 
G|--3--------3--------0----------0-| 
D|--3--------3--------2----------2-| 
A|--1--------1--------3----------1-| 
E|---------------------------------| 

e|--------------------------| 
B|--3--3--3--3--3--3---3----| 
G|--3--------3------------3-| 
D|--3--------3--------------| 
A|--1--------1---------3----| 
E|--------------------------| 

e|------------------------------------------| 
B|--3--3--3--3--3--3----3---3--3--3--1--0---| 
G|--3--------3----------0-----------------2-| 
D|--3--------3----------0-----------------0-| 
A|--1--------1----------2-------------------| 
E|----------------------3-------------------| 

e|----3--3--3--3---3--2---0--------------|----2-----0-| 
B|----0------------3----------3--1--0----|----3-----2-| 
G|----0------------0----------2--------2-|----2-----2-| 
D|---------------------------------------|----0-----2-| 
A|-----------------3----------0----------|----------0-| 
E|----3----------------------------------|------------| 
                                     (2x) 

	  

Search Paypal
auto scroll beats size up size down change color hide chords drawings
tab show chords e-chords YouTube Clip e-chords hide all tabs e-chords go to top tab