The Beatles

home > The Beatles

All You Need Is Love Tab

The Beatles

Difficulty: ExpertExpert

tuner correct add songbook print version text version save to e-mail
chordsukulelecavacokeyboardtabbassdrumsharmonicsflute Guitar Pro
chords

All You Need Is Love

Year: 1969 - Album: Yellow Submarine

  		E-----------------------------------10```--------------
B------------------------10---10----------12-----------
G-------------12---12--------------------------12------
D--12---12---------------------------------------------
A------------------------------------------------------
E------------------------------------------------------


E------------------------------------------------------
B-------12---------------13```------------10--------10-
G--12------12----------------------------------12------
D------------------14----------------------------------
A------------------------------------------------------
E------------------------------------------------------


G      D/F#     Em
Love   love     love     

G      D/F#     Em 
Love   love     love      

D7/A   G        D7/A         
Love   love     love

(Then play this)

E------------------------------------------------------
B------------------------------------------------------
G---------------------------------0--------------------
D--0-------------------0----0--2-----------------------
A-------3-----2---3------------------------------------
E------------------------------------------------------



G                       D/F#             Em
There's nothing you can do that can't be done

G                      D/F#               Em
Theres nothing you can sing that can't be sung

D7/A            G               D/F#              D7      
Nothing you can say but you can learn to play the game

D7/A    D7
It's    easy


There's nothing you can make that can't be made
No one  you can save that can't be saved
Nothing you can do but you can learn how to be you in time
It's easy

tabchorus
G A7sus D7 All you need is love G A7sus D7 All you need is love G B7 Em G/D All you need is love love C D7 G Love is all you need
tab
There's nothing you can know that isn't known Nothing you can see that isn't shown Nowhere you can be that isn't where you're meant to be Its easy CHORUS C D7 G Love is all you need G A7sus D7 All you need is love D7 G A7sus D7 All together now All you need is love D7 G A7sus D7 Everybody now All you need is love G D G Love is all you need (repeats a few times) (Then Paul (I think) starts going "Oh yeah - loves you yeah yeah yeah - she loves you yeah yeah yeah"). _______________________________________________________ Contribuição: Thalles Theodoro([email protected])

Full key step upFull key step up
Half key step upHalf key step up
Half key step downHalf key step down
Full key step downFull key step down
Search Paypal
auto scroll beats size up size down change color hide chords drawings
tab show chords e-chords YouTube Clip e-chords hide all tabs e-chords go to top tab