The Beatles

home > The Beatles

You Wont See Me Bass Tab

The Beatles

Difficulty: BeginnerBeginner

by Pete%5FTownshend

tuner correct add songbook print version text version save to e-mail
chordsukulelecavacokeyboardtabbassdrumsharmonicsflute Guitar Pro
chords

You Wont See Me

  		Intro: 
   1   2   3   4     1   2   3   4    
G------------------|-----------------| 
D----4-7-----------|-----------------| 
A--5---------------|-----------------| 
E--------5---------|-----4---2---0---| 
                                When I 
 
   A                 B7                D                 A 
   1   2   3   4     1   2   3   4     1   2   3   4     1   2   3   4    
G------------------|-----------------|-------7---------|-----------------| 
D--------7---------|-------9-9-7-6---|---4-5-----7-4-7-|-------7---------| 
A----4-7-------4-7-|---6-9---------9-|-5---------------|---4-7-----------| 
E--5-------5-5-----|-7---------------|-----------------|-5---------------| 
  call         you   up,        your  li__________nes___gaged      I have  
 
   A                 B7                D                 A 
   1   2   3   4     1   2   3   4     1   2   3   4     1   2   3   4    
G------------------|-----------------|-------7---6-4---|-----------------| 
D------------------|-------9---7-6---|---4-5---------7-|-------7---------| 
A----4-7-------4-7-|---6-9---------9-|-5---------------|---4-7-------4-7-| 
E--5-----5---5-----|-7---------------|-----------------|-5---------5-----| 
  had            e___nough,       so   a_________ct your age       We have 
 
   A                 D                 Dm                A 
   1   2   3   4     1   2   3   4     1   2   3   4     1   2   3   4    
G------------------|-------7---6-4---|-----------------|-----------------| 
D--------7---------|---4-7---------7-|-----------------|-------7---4-----| 
A----4-7-------4-7-|-5---------------|-5---------8-5---|---4-7-------7-4-| 
E--5---------5-----|-----------------|---------------5-|-5---------------| 
  lost         the   time        that was  so  hard  to  find    And Ill 
 
   A                 B7                D     A            
   1   2   3   4     1   2   3   4     1   2   3   4     1   2   3   4    
G------------------|-----------------|-----------------|-----------------| 
D--------7---------|-------9---7-6---|---4-7-----------|-----------------| 
A----4-7-----4-7---|---6-9---------9-|-5---------------|-----------------| 
E--5-------------5-|-7---------------|-------5---------|-5---4---2---0---| 
  loose          my mind          if   you wont see me (you wont see me) 
 
   D     A            
   1   2   3   4     1   2   3   4    
G------------------|-----------------| 
D----4-7-----------|-----------------| 
A--5---------------|-----------------| 
E--------5---------|-5---4---2---0---| 
  you wont see me (you wont see me) 
 
Bridge: 
1st time: Bm  D   Dm  A   B7  E7  E   2nd time: Bm             D  (etc.) 
G------------------------------------|---------------------|---------------| 
D--------------------------------7..-|---------------------|---------------| 
A-------2..-5..-5..---------7..-----|------2-2-2----0-1-2-|-5-5-5----3-4-5| 
E--------------------5..-7..---------|-----------2-2-------|------5-5------| 
 
 

	  

Full key step upFull key step up
Half key step upHalf key step up
Half key step downHalf key step down
Full key step downFull key step down
Search Paypal
auto scroll beats size up size down change color hide chords drawings
tab show chords e-chords YouTube Clip e-chords hide all tabs e-chords go to top tab