The Beatles

home > The Beatles

Day Tripper Bass Tab

The Beatles

Difficulty: ExpertExpert

tuner correct add songbook print version text version save to e-mail
chords

Day Tripper

Year: 1965 - Album: The Beatles 1

(Lennon/McCartney)

	  
Intro: 

G|-----------9-------11---7-9-----------9-------11---7-9-----| 
D|---------9---12--9----9-------------9---12--9----9---------| 
A|-7-10-11--------------------7-10-11---------------------7--| 
E|-----------------------------------------------------------| 

Verse:  

G|-----------9-------11---7-9-----------9-------11---7-9-----| 
D|---------9---12--9----9-------------9---12--9----9---------| 
A|-7-10-11--------------------7-10-11---------------------7--| 
E|-----------------------------------------------------------| (2x) 

G|---------------14----------16----12-14----| 
D|-----------14------17---14----14----------| 
A|--12-15-16------------------------------7-| 
E|------------------------------------------| 

G|-----------9-------11---7-9-----------9-------11---7-9-----| 
D|---------9---12--9----9-------------9---12--9----9---------| 
A|-7-10-11--------------------7-10-11---------------------7--| 
E|-----------------------------------------------------------| 

Chorus: 

G|---7--8--9-----------9-9-8-11-----------9-9-8-11------| 
D|----------------8-11---------------8-11---------------| 
A|------------9-9----------------9-9----------------9---| 
E|------------------------------------------------------| 

G|----------------------------| 
D|---------11-11-14-14-11-14--| 
A|---12-12--------------------| 
E|----------------------------| 

G|----------------------------| 
D|---------10-10-13-13-10-13--| 
A|---11-11--------------------| 
E|----------------------------| 

G|-----------------------| 
D|-----------------------| 
A|-------8-8-11-11-8-11--| 
E|---9-9-----------------| 

G|-----------------------| 
D|-----------------------| 
A|--------6-6-9-9-6-9--7-| 
E|---7-7-----------------| 

	  

there isn't a video lesson for this song

request
Search Paypal
auto scroll beats size up size down change color hide chords drawings
tab show chords e-chords YouTube Clip e-chords hide all tabs e-chords go to top tab