The Beatles

home > The Beatles

And I Love Her Tab

The Beatles

Difficulty: BeginnerBeginner

by Pete%5FTownshend

tuner correct add songbook print version text version save to e-mail
chordsukulelecavacokeyboardtabbassdrumsharmonicsflute Guitar Pro
chords

And I Love Her

Year: 1964 - Album: A Hard Day´s Night

  		Intro: F#m E6 F#m  
       F#m                        E6                         F#m 
A-|---7-6-4-|-|-|---7-6-4-|-|-|---7-6-4-| 
E-|-7-------|-|-|-7-------|-|-|-7-------| 
 
Arp:         F#m                       C#m		  A	 	     B7                         E 
e|-------9-----|-------9-----|-------9-----|-------11----|-------9-----| 
B|----10----10-|----9-----9--|----10----10-|----10----10-|----9-----9--| 
G|-11----------|-9-----------|-9-----------|-11----------|-9-----------| 
 
Solo: Gm       Dm            Gm       Dm         Gm       Dm 
G|---------9-7/10--------9-9\7--------9-7/10- 
D|---5-7-8---------5-7-8--------5-7-8-------- 
 
       Bb         C7                          F                          Gm 
G|-10-7--------------------------------- 
D|------8-7-7\5--------/7--------------- 
A|---------------5-3-5-----3------------ 
E|---------------------------5-3-1-1/3-- 
 
End:          Gm                          F6                         Gm                          D   
A|---8-7-5-|-|-|---8-7-5-|-|-|---8-7-5-|-|-|---8-7-5-|-| 
E|-8-------|-|-|-8-------|-|-|-8-------|-|-|-8-------|-| 
 

	  

Full key step upFull key step up
Half key step upHalf key step up
Half key step downHalf key step down
Full key step downFull key step down
Search Paypal
auto scroll beats size up size down change color hide chords drawings
tab show chords e-chords YouTube Clip e-chords hide all tabs e-chords go to top tab